  0
SECTION
  2
HEADER
  9
$ACADVER
  1
AC1027
  9
$ACADMAINTVER
 70
   125
  9
$DWGCODEPAGE
  3
ANSI_1252
  9
$LASTSAVEDBY
  1
P04857991
  9
$REQUIREDVERSIONS
160
                 0
  9
$INSBASE
 10
0.0
 20
0.0
 30
0.0
  9
$EXTMIN
 10
71803.80420823706
 20
319171.5257182183
 30
0.0
  9
$EXTMAX
 10
72641.19650176676
 20
319838.946248998
 30
0.0
  9
$LIMMIN
 10
0.0
 20
0.0
  9
$LIMMAX
 10
12.0
 20
9.0
  9
$ORTHOMODE
 70
     0
  9
$REGENMODE
 70
     1
  9
$FILLMODE
 70
     1
  9
$QTEXTMODE
 70
     0
  9
$MIRRTEXT
 70
     0
  9
$LTSCALE
 40
1.0
  9
$ATTMODE
 70
     1
  9
$TEXTSIZE
 40
0.2
  9
$TRACEWID
 40
0.05
  9
$TEXTSTYLE
  7
Legend
  9
$CLAYER
  8
0
  9
$CELTYPE
  6
ByLayer
  9
$CECOLOR
 62
   256
  9
$CELTSCALE
 40
1.0
  9
$DISPSILH
 70
     0
  9
$DIMSCALE
 40
1.0
  9
$DIMASZ
 40
0.18
  9
$DIMEXO
 40
0.0625
  9
$DIMDLI
 40
0.38
  9
$DIMRND
 40
0.0
  9
$DIMDLE
 40
0.0
  9
$DIMEXE
 40
0.18
  9
$DIMTP
 40
0.0
  9
$DIMTM
 40
0.0
  9
$DIMTXT
 40
0.18
  9
$DIMCEN
 40
0.09
  9
$DIMTSZ
 40
0.0
  9
$DIMTOL
 70
     0
  9
$DIMLIM
 70
     0
  9
$DIMTIH
 70
     1
  9
$DIMTOH
 70
     1
  9
$DIMSE1
 70
     0
  9
$DIMSE2
 70
     0
  9
$DIMTAD
 70
     0
  9
$DIMZIN
 70
     0
  9
$DIMBLK
  1

  9
$DIMASO
 70
     1
  9
$DIMSHO
 70
     1
  9
$DIMPOST
  1

  9
$DIMAPOST
  1

  9
$DIMALT
 70
     0
  9
$DIMALTD
 70
     2
  9
$DIMALTF
 40
25.4
  9
$DIMLFAC
 40
1.0
  9
$DIMTOFL
 70
     0
  9
$DIMTVP
 40
0.0
  9
$DIMTIX
 70
     0
  9
$DIMSOXD
 70
     0
  9
$DIMSAH
 70
     0
  9
$DIMBLK1
  1

  9
$DIMBLK2
  1

  9
$DIMSTYLE
  2
Standard
  9
$DIMCLRD
 70
     0
  9
$DIMCLRE
 70
     0
  9
$DIMCLRT
 70
     0
  9
$DIMTFAC
 40
1.0
  9
$DIMGAP
 40
0.09
  9
$DIMJUST
 70
     0
  9
$DIMSD1
 70
     0
  9
$DIMSD2
 70
     0
  9
$DIMTOLJ
 70
     1
  9
$DIMTZIN
 70
     0
  9
$DIMALTZ
 70
     0
  9
$DIMALTTZ
 70
     0
  9
$DIMUPT
 70
     0
  9
$DIMDEC
 70
     4
  9
$DIMTDEC
 70
     4
  9
$DIMALTU
 70
     2
  9
$DIMALTTD
 70
     2
  9
$DIMTXSTY
  7
Standard
  9
$DIMAUNIT
 70
     0
  9
$DIMADEC
 70
     0
  9
$DIMALTRND
 40
0.0
  9
$DIMAZIN
 70
     0
  9
$DIMDSEP
 70
    46
  9
$DIMATFIT
 70
     3
  9
$DIMFRAC
 70
     0
  9
$DIMLDRBLK
  1

  9
$DIMLUNIT
 70
     2
  9
$DIMLWD
 70
    -2
  9
$DIMLWE
 70
    -2
  9
$DIMTMOVE
 70
     0
  9
$DIMFXL
 40
1.0
  9
$DIMFXLON
 70
     0
  9
$DIMJOGANG
 40
0.7853981633974483
  9
$DIMTFILL
 70
     0
  9
$DIMTFILLCLR
 70
     0
  9
$DIMARCSYM
 70
     0
  9
$DIMLTYPE
  6

  9
$DIMLTEX1
  6

  9
$DIMLTEX2
  6

  9
$DIMTXTDIRECTION
 70
     0
  9
$LUNITS
 70
     2
  9
$LUPREC
 70
     4
  9
$SKETCHINC
 40
0.1
  9
$FILLETRAD
 40
0.0
  9
$AUNITS
 70
     0
  9
$AUPREC
 70
     0
  9
$MENU
  1
.
  9
$ELEVATION
 40
0.0
  9
$PELEVATION
 40
0.0
  9
$THICKNESS
 40
0.0
  9
$LIMCHECK
 70
     0
  9
$CHAMFERA
 40
0.0
  9
$CHAMFERB
 40
0.0
  9
$CHAMFERC
 40
0.0
  9
$CHAMFERD
 40
0.0
  9
$SKPOLY
 70
     0
  9
$TDCREATE
 40
2459453.654062500
  9
$TDUCREATE
 40
2459453.570729167
  9
$TDUPDATE
 40
2459453.660393518
  9
$TDUUPDATE
 40
2459453.577060185
  9
$TDINDWG
 40
0.0063657407
  9
$TDUSRTIMER
 40
0.0063310185
  9
$USRTIMER
 70
     1
  9
$ANGBASE
 50
0.0
  9
$ANGDIR
 70
     0
  9
$PDMODE
 70
     0
  9
$PDSIZE
 40
0.0
  9
$PLINEWID
 40
0.0
  9
$SPLFRAME
 70
     0
  9
$SPLINETYPE
 70
     6
  9
$SPLINESEGS
 70
     8
  9
$HANDSEED
  5
D1A
  9
$SURFTAB1
 70
     6
  9
$SURFTAB2
 70
     6
  9
$SURFTYPE
 70
     6
  9
$SURFU
 70
     6
  9
$SURFV
 70
     6
  9
$UCSBASE
  2

  9
$UCSNAME
  2

  9
$UCSORG
 10
0.0
 20
0.0
 30
0.0
  9
$UCSXDIR
 10
1.0
 20
0.0
 30
0.0
  9
$UCSYDIR
 10
0.0
 20
1.0
 30
0.0
  9
$UCSORTHOREF
  2

  9
$UCSORTHOVIEW
 70
     0
  9
$UCSORGTOP
 10
0.0
 20
0.0
 30
0.0
  9
$UCSORGBOTTOM
 10
0.0
 20
0.0
 30
0.0
  9
$UCSORGLEFT
 10
0.0
 20
0.0
 30
0.0
  9
$UCSORGRIGHT
 10
0.0
 20
0.0
 30
0.0
  9
$UCSORGFRONT
 10
0.0
 20
0.0
 30
0.0
  9
$UCSORGBACK
 10
0.0
 20
0.0
 30
0.0
  9
$PUCSBASE
  2

  9
$PUCSNAME
  2

  9
$PUCSORG
 10
0.0
 20
0.0
 30
0.0
  9
$PUCSXDIR
 10
1.0
 20
0.0
 30
0.0
  9
$PUCSYDIR
 10
0.0
 20
1.0
 30
0.0
  9
$PUCSORTHOREF
  2

  9
$PUCSORTHOVIEW
 70
     0
  9
$PUCSORGTOP
 10
0.0
 20
0.0
 30
0.0
  9
$PUCSORGBOTTOM
 10
0.0
 20
0.0
 30
0.0
  9
$PUCSORGLEFT
 10
0.0
 20
0.0
 30
0.0
  9
$PUCSORGRIGHT
 10
0.0
 20
0.0
 30
0.0
  9
$PUCSORGFRONT
 10
0.0
 20
0.0
 30
0.0
  9
$PUCSORGBACK
 10
0.0
 20
0.0
 30
0.0
  9
$USERI1
 70
     0
  9
$USERI2
 70
     0
  9
$USERI3
 70
     0
  9
$USERI4
 70
     0
  9
$USERI5
 70
     0
  9
$USERR1
 40
0.0
  9
$USERR2
 40
0.0
  9
$USERR3
 40
0.0
  9
$USERR4
 40
0.0
  9
$USERR5
 40
0.0
  9
$WORLDVIEW
 70
     1
  9
$SHADEDGE
 70
     3
  9
$SHADEDIF
 70
    70
  9
$TILEMODE
 70
     1
  9
$MAXACTVP
 70
    64
  9
$PINSBASE
 10
0.0
 20
0.0
 30
0.0
  9
$PLIMCHECK
 70
     0
  9
$PEXTMIN
 10
0.0
 20
0.0
 30
0.0
  9
$PEXTMAX
 10
0.0
 20
0.0
 30
0.0
  9
$PLIMMIN
 10
0.0
 20
0.0
  9
$PLIMMAX
 10
12.0
 20
9.0
  9
$UNITMODE
 70
     0
  9
$VISRETAIN
 70
     1
  9
$PLINEGEN
 70
     0
  9
$PSLTSCALE
 70
     1
  9
$TREEDEPTH
 70
  3020
  9
$CMLSTYLE
  2
Standard
  9
$CMLJUST
 70
     0
  9
$CMLSCALE
 40
1.0
  9
$PROXYGRAPHICS
 70
     1
  9
$MEASUREMENT
 70
     1
  9
$CELWEIGHT
370
    -1
  9
$ENDCAPS
280
     0
  9
$JOINSTYLE
280
     0
  9
$LWDISPLAY
290
     0
  9
$INSUNITS
 70
     1
  9
$HYPERLINKBASE
  1

  9
$STYLESHEET
  1

  9
$XEDIT
290
     1
  9
$CEPSNTYPE
380
     0
  9
$PSTYLEMODE
290
     1
  9
$FINGERPRINTGUID
  2
{C8B06504-0885-C444-8A89-E6850E28AFA6}
  9
$VERSIONGUID
  2
{D6FE9470-8A02-6749-B0C1-51EB3AACBC8F}
  9
$EXTNAMES
290
     1
  9
$PSVPSCALE
 40
0.0
  9
$OLESTARTUP
290
     0
  9
$SORTENTS
280
   127
  9
$INDEXCTL
280
     0
  9
$HIDETEXT
280
     1
  9
$XCLIPFRAME
280
     2
  9
$HALOGAP
280
     0
  9
$OBSCOLOR
 70
   257
  9
$OBSLTYPE
280
     0
  9
$INTERSECTIONDISPLAY
280
     0
  9
$INTERSECTIONCOLOR
 70
   257
  9
$DIMASSOC
280
     2
  9
$PROJECTNAME
  1

  9
$CAMERADISPLAY
290
     0
  9
$LENSLENGTH
 40
50.0
  9
$CAMERAHEIGHT
 40
0.0
  9
$STEPSPERSEC
 40
2.0
  9
$STEPSIZE
 40
100.0
  9
$3DDWFPREC
 40
2.0
  9
$PSOLWIDTH
 40
0.25
  9
$PSOLHEIGHT
 40
4.0
  9
$LOFTANG1
 40
1.570796326794896
  9
$LOFTANG2
 40
1.570796326794896
  9
$LOFTMAG1
 40
0.0
  9
$LOFTMAG2
 40
0.0
  9
$LOFTPARAM
 70
     7
  9
$LOFTNORMALS
280
     1
  9
$LATITUDE
 40
37.795
  9
$LONGITUDE
 40
-122.394
  9
$NORTHDIRECTION
 40
0.0
  9
$TIMEZONE
 70
 -8000
  9
$LIGHTGLYPHDISPLAY
280
     1
  9
$TILEMODELIGHTSYNCH
280
     1
  9
$CMATERIAL
347
96
  9
$SOLIDHIST
280
     0
  9
$SHOWHIST
280
     1
  9
$DWFFRAME
280
     2
  9
$DGNFRAME
280
     0
  9
$REALWORLDSCALE
290
     1
  9
$INTERFERECOLOR
 62
     1
  9
$INTERFEREOBJVS
345
A3
  9
$INTERFEREVPVS
346
A0
  9
$CSHADOW
280
     0
  9
$SHADOWPLANELOCATION
 40
0.0
  0
ENDSEC
  0
SECTION
  2
CLASSES
  0
CLASS
  1
ACDBDICTIONARYWDFLT
  2
AcDbDictionaryWithDefault
  3
ObjectDBX Classes
 90
        0
 91
        1
280
     0
281
     0
  0
CLASS
  1
DICTIONARYVAR
  2
AcDbDictionaryVar
  3
ObjectDBX Classes
 90
        0
 91
        9
280
     0
281
     0
  0
CLASS
  1
TABLESTYLE
  2
AcDbTableStyle
  3
ObjectDBX Classes
 90
     4095
 91
        2
280
     0
281
     0
  0
CLASS
  1
MATERIAL
  2
AcDbMaterial
  3
ObjectDBX Classes
 90
     1153
 91
        3
280
     0
281
     0
  0
CLASS
  1
VISUALSTYLE
  2
AcDbVisualStyle
  3
ObjectDBX Classes
 90
     4095
 91
       25
280
     0
281
     0
  0
CLASS
  1
SCALE
  2
AcDbScale
  3
ObjectDBX Classes
 90
     1153
 91
       35
280
     0
281
     0
  0
CLASS
  1
MLEADERSTYLE
  2
AcDbMLeaderStyle
  3
ACDB_MLEADERSTYLE_CLASS
 90
     4095
 91
        2
280
     0
281
     0
  0
CLASS
  1
CELLSTYLEMAP
  2
AcDbCellStyleMap
  3
ObjectDBX Classes
 90
     1152
 91
        2
280
     0
281
     0
  0
CLASS
  1
EXACXREFPANELOBJECT
  2
ExAcXREFPanelObject
  3
EXAC_ESW
 90
     1025
 91
        0
280
     0
281
     0
  0
CLASS
  1
NPOCOLLECTION
  2
AcDbImpNonPersistentObjectsCollection
  3
ObjectDBX Classes
 90
     1153
 91
        0
280
     0
281
     0
  0
CLASS
  1
LAYER_INDEX
  2
AcDbLayerIndex
  3
ObjectDBX Classes
 90
        0
 91
        0
280
     0
281
     0
  0
CLASS
  1
SPATIAL_INDEX
  2
AcDbSpatialIndex
  3
ObjectDBX Classes
 90
        0
 91
        0
280
     0
281
     0
  0
CLASS
  1
IDBUFFER
  2
AcDbIdBuffer
  3
ObjectDBX Classes
 90
        0
 91
        0
280
     0
281
     0
  0
CLASS
  1
ACDBSECTIONVIEWSTYLE
  2
AcDbSectionViewStyle
  3
ObjectDBX Classes
 90
     1025
 91
        2
280
     0
281
     0
  0
CLASS
  1
ACDBDETAILVIEWSTYLE
  2
AcDbDetailViewStyle
  3
ObjectDBX Classes
 90
     1025
 91
        2
280
     0
281
     0
  0
CLASS
  1
DMMAPMANAGER
  2
AcMapDMMapManager
  3
AcMapDisplayManagement
 90
     1024
 91
        1
280
     0
281
     0
  0
CLASS
  1
DMSTYLELIBRARY
  2
AcMapDMStyleLibrary
  3
AcMapDisplayManagement
 90
     1024
 91
        1
280
     0
281
     0
  0
CLASS
  1
DMSTYLECATEGORY
  2
AcMapDMStyleCategory
  3
AcMapDisplayManagement
 90
     1024
 91
        1
280
     0
281
     0
  0
CLASS
  1
DATATABLE
  2
AcDbDataTable
  3
ObjectDBX Classes
 90
        0
 91
        1
280
     0
281
     0
  0
CLASS
  1
MAPRESOURCEMANAGEROBJECT
  2
AcMapResourceManager
  3
AcMapSharedComponents
 90
     1024
 91
        1
280
     0
281
     0
  0
CLASS
  1
MAPGWSUNDOOBJECT
  2
AcMapGWSUndoRecorder
  3
AcMapFeatureSourceManager
 90
     1025
 91
        1
280
     0
281
     0
  0
CLASS
  1
DMMAP
  2
AcMapDMMap
  3
AcMapDisplayManagement
 90
     1024
 91
        1
280
     0
281
     0
  0
CLASS
  1
DMBASEELEMENT
  2
AcMapDMBaseElement
  3
AcMapDisplayManagement
 90
     1024
 91
        1
280
     0
281
     0
  0
CLASS
  1
DMDEFAULTSTYLE
  2
AcMapDMDefaultStyle
  3
AcMapDisplayManagement
 90
     1024
 91
        1
280
     0
281
     0
  0
CLASS
  1
DMSTYLEREFERENCE
  2
AcMapDMStyleReference
  3
AcMapDisplayManagement
 90
     1024
 91
        1
280
     0
281
     0
  0
CLASS
  1
DMSURROGATESTYLESETS
  2
AcMapDMSurrogateStyleSets
  3
AcMapDisplayManagement
 90
     1153
 91
        1
280
     0
281
     0
  0
CLASS
  1
SORTENTSTABLE
  2
AcDbSortentsTable
  3
ObjectDBX Classes
 90
        0
 91
        2
280
     0
281
     0
  0
CLASS
  1
DMSTYLIZEDENTITIESTABLE
  2
AcMapDMStylizedEntitiesTable
  3
AcMapDisplayManagement
 90
     1024
 91
        1
280
     0
281
     0
  0
CLASS
  1
SUN
  2
AcDbSun
  3
SCENEOE
 90
     1153
 91
        1
280
     0
281
     0
  0
ENDSEC
  0
SECTION
  2
TABLES
  0
TABLE
  2
VPORT
  5
8
330
0
100
AcDbSymbolTable
 70
     1
1001
ACAD
1000
DbSaveVer
1071
      122
  0
VPORT
  5
94
330
8
100
AcDbSymbolTableRecord
100
AcDbViewportTableRecord
  2
*Active
 70
     0
 10
0.0
 20
0.0
 11
1.0
 21
1.0
 12
72188.88001580594
 22
319464.5526519662
 13
0.0
 23
0.0
 14
0.5
 24
0.5
 15
0.5
 25
0.5
 16
0.0
 26
0.0
 36
1.0
 17
0.0
 27
0.0
 37
0.0
 40
1093.052393801871
 41
1.778735632183908
 42
50.0
 43
0.0
 44
0.0
 50
0.0
 51
0.0
 71
     0
 72
  1000
 73
     1
 74
     3
 75
     0
 76
     0
 77
     0
 78
     0
281
     0
 65
     1
110
0.0
120
0.0
130
0.0
111
1.0
121
0.0
131
0.0
112
0.0
122
1.0
132
0.0
 79
     0
146
0.0
348
9F
 60
     3
 61
     5
292
     1
282
     1
141
0.0
142
0.0
 63
   250
421
  3355443
361
217
1001
ACAD_NAV_VCDISPLAY
1070
     3
  0
ENDTAB
  0
TABLE
  2
LTYPE
  5
5
330
0
100
AcDbSymbolTable
 70
     2
  0
LTYPE
  5
14
330
5
100
AcDbSymbolTableRecord
100
AcDbLinetypeTableRecord
  2
ByBlock
 70
     0
  3

 72
    65
 73
     0
 40
0.0
  0
LTYPE
  5
15
330
5
100
AcDbSymbolTableRecord
100
AcDbLinetypeTableRecord
  2
ByLayer
 70
     0
  3

 72
    65
 73
     0
 40
0.0
  0
LTYPE
  5
16
330
5
100
AcDbSymbolTableRecord
100
AcDbLinetypeTableRecord
  2
Continuous
 70
     0
  3
Solid line
 72
    65
 73
     0
 40
0.0
  0
LTYPE
  5
265
330
5
100
AcDbSymbolTableRecord
100
AcDbLinetypeTableRecord
  2
STRICHPUNKT
 70
     0
  3
Strichpunkt __ . __ . __ . __ . __ . __ . __ . 
 72
    65
 73
     4
 40
25.4
 49
12.7
 74
     0
 49
-6.349999999999999
 74
     0
 49
0.0
 74
     0
 49
-6.349999999999999
 74
     0
  0
ENDTAB
  0
TABLE
  2
LAYER
  5
2
102
{ACAD_XDICTIONARY
360
18E
102
}
330
0
100
AcDbSymbolTable
 70
     3
  0
LAYER
  5
10
102
{ACAD_XDICTIONARY
360
E6
102
}
330
2
100
AcDbSymbolTableRecord
100
AcDbLayerTableRecord
  2
0
 70
     0
 62
     7
  6
Continuous
370
    -3
390
F
347
98
348
0
  0
LAYER
  5
266
102
{ACAD_XDICTIONARY
360
267
102
}
330
2
100
AcDbSymbolTableRecord
100
AcDbLayerTableRecord
  2
001_AR
 70
     0
 62
     1
  6
Continuous
370
    -3
390
F
347
98
348
0
1001
AcAecLayerStandard
1000

1000

1001
AcCmTransparency
1071
        0
  0
LAYER
  5
268
330
2
100
AcDbSymbolTableRecord
100
AcDbLayerTableRecord
  2
P_SV_SB_ACHS_01_1
 70
     0
 62
     1
420
 16711680
  6
STRICHPUNKT
370
    20
390
F
347
98
348
0
1001
AcAecLayerStandard
1000

1000

  0
ENDTAB
  0
TABLE
  2
STYLE
  5
3
330
0
100
AcDbSymbolTable
 70
     4
  0
STYLE
  5
11
330
3
100
AcDbSymbolTableRecord
100
AcDbTextStyleTableRecord
  2
Standard
 70
     0
 40
0.0
 41
1.0
 50
0.0
 71
     0
 42
0.2
  3
arial.ttf
  4

1001
ACAD
1000
Arial
1071
       34
  0
STYLE
  5
DC
330
3
100
AcDbSymbolTableRecord
100
AcDbTextStyleTableRecord
  2
Beschriftung
 70
     0
 40
0.0
 41
1.0
 50
0.0
 71
     0
 42
0.2
  3
arial.ttf
  4

1001
AcadAnnotative
1000
AnnotativeData
1002
{
1070
     1
1070
     1
1002
}
1001
ACAD
1000
Arial
1071
       34
  0
STYLE
  5
20C
330
3
100
AcDbSymbolTableRecord
100
AcDbTextStyleTableRecord
  2
Legend
 70
     0
 40
0.0
 41
1.0
 50
0.0
 71
     0
 42
0.2
  3
calibri.ttf
  4

1001
ACAD
1000
Calibri
1071
       80
  0
STYLE
  5
269
330
3
100
AcDbSymbolTableRecord
100
AcDbTextStyleTableRecord
  2
A_Allgemein
 70
     0
 40
0.0
 41
1.0
 50
0.0
 71
     0
 42
2.0
  3
isocp.shx
  4

  0
ENDTAB
  0
TABLE
  2
VIEW
  5
6
330
0
100
AcDbSymbolTable
 70
     0
  0
ENDTAB
  0
TABLE
  2
UCS
  5
7
330
0
100
AcDbSymbolTable
 70
     0
  0
ENDTAB
  0
TABLE
  2
APPID
  5
9
330
0
100
AcDbSymbolTable
 70
    18
  0
APPID
  5
12
330
9
100
AcDbSymbolTableRecord
100
AcDbRegAppTableRecord
  2
ACAD
 70
     0
  0
APPID
  5
DD
330
9
100
AcDbSymbolTableRecord
100
AcDbRegAppTableRecord
  2
AcadAnnoPO
 70
     0
  0
APPID
  5
DE
330
9
100
AcDbSymbolTableRecord
100
AcDbRegAppTableRecord
  2
AcadAnnotative
 70
     0
  0
APPID
  5
DF
330
9
100
AcDbSymbolTableRecord
100
AcDbRegAppTableRecord
  2
ACAD_DSTYLE_DIMJAG
 70
     0
  0
APPID
  5
E0
330
9
100
AcDbSymbolTableRecord
100
AcDbRegAppTableRecord
  2
ACAD_DSTYLE_DIMTALN
 70
     0
  0
APPID
  5
107
330
9
100
AcDbSymbolTableRecord
100
AcDbRegAppTableRecord
  2
ACAD_MLEADERVER
 70
     0
  0
APPID
  5
1A6
330
9
100
AcDbSymbolTableRecord
100
AcDbRegAppTableRecord
  2
ACAD_NAV_VCDISPLAY
 70
     0
  0
APPID
  5
210
330
9
100
AcDbSymbolTableRecord
100
AcDbRegAppTableRecord
  2
AcMapDMDisplayStyleRegapp
 70
     0
  0
APPID
  5
21A
330
9
100
AcDbSymbolTableRecord
100
AcDbRegAppTableRecord
  2
ADE
 70
     0
  0
APPID
  5
21F
330
9
100
AcDbSymbolTableRecord
100
AcDbRegAppTableRecord
  2
DCO15
 70
     0
  0
APPID
  5
221
330
9
100
AcDbSymbolTableRecord
100
AcDbRegAppTableRecord
  2
MapGWS
 70
     0
  0
APPID
  5
26B
330
9
100
AcDbSymbolTableRecord
100
AcDbRegAppTableRecord
  2
ACAD_PSEXT
 70
     0
  0
APPID
  5
26C
330
9
100
AcDbSymbolTableRecord
100
AcDbRegAppTableRecord
  2
AcAecLayerStandard
 70
     0
  0
APPID
  5
26D
330
9
100
AcDbSymbolTableRecord
100
AcDbRegAppTableRecord
  2
AcCmTransparency
 70
     0
  0
APPID
  5
26E
330
9
100
AcDbSymbolTableRecord
100
AcDbRegAppTableRecord
  2
LONG_AXIS
 70
     0
  0
APPID
  5
26F
330
9
100
AcDbSymbolTableRecord
100
AcDbRegAppTableRecord
  2
ACHSE_01_1_vzd
 70
     0
  0
APPID
  5
270
330
9
100
AcDbSymbolTableRecord
100
AcDbRegAppTableRecord
  2
ACHSE_01_vzd
 70
     0
  0
APPID
  5
D09
330
9
100
AcDbSymbolTableRecord
100
AcDbRegAppTableRecord
  2
ADE_PROJECTION
 70
     0
  0
ENDTAB
  0
TABLE
  2
DIMSTYLE
  5
A
330
0
100
AcDbSymbolTable
 70
     3
100
AcDbDimStyleTable
 71
     2
340
27
340
E1
  0
DIMSTYLE
105
27
330
A
100
AcDbSymbolTableRecord
100
AcDbDimStyleTableRecord
  2
Standard
 70
     0
340
11
  0
DIMSTYLE
105
E1
330
A
100
AcDbSymbolTableRecord
100
AcDbDimStyleTableRecord
  2
Beschriftung
 70
     0
 40
0.0
340
11
1001
AcadAnnotative
1000
AnnotativeData
1002
{
1070
     1
1070
     1
1002
}
1001
ACAD_DSTYLE_DIMJAG
1070
   388
1040
1.5
1001
ACAD_DSTYLE_DIMTALN
1070
   392
1070
     0
  0
DIMSTYLE
105
26A
330
A
100
AcDbSymbolTableRecord
100
AcDbDimStyleTableRecord
  2
ISO-25
 70
     0
 41
2.5
 42
0.625
 43
3.75
 44
1.25
 73
     0
 74
     0
 77
     1
 78
     8
140
2.5
141
2.5
143
0.03937007874016
147
0.625
171
     3
172
     1
271
     2
272
     2
274
     3
278
    44
283
     0
284
     8
340
11
  0
ENDTAB
  0
TABLE
  2
BLOCK_RECORD
  5
1
330
0
100
AcDbSymbolTable
 70
     2
  0
BLOCK_RECORD
  5
1F
102
{ACAD_XDICTIONARY
360
15D
102
}
330
1
100
AcDbSymbolTableRecord
100
AcDbBlockTableRecord
  2
*Model_Space
340
22
 70
     0
280
     1
281
     0
  0
BLOCK_RECORD
  5
58
330
1
100
AcDbSymbolTableRecord
100
AcDbBlockTableRecord
  2
*Paper_Space
340
59
 70
     0
280
     1
281
     0
  0
BLOCK_RECORD
  5
5D
330
1
100
AcDbSymbolTableRecord
100
AcDbBlockTableRecord
  2
*Paper_Space0
340
5E
 70
     0
280
     1
281
     0
  0
ENDTAB
  0
ENDSEC
  0
SECTION
  2
BLOCKS
  0
BLOCK
  5
20
330
1F
100
AcDbEntity
  8
0
100
AcDbBlockBegin
  2
*Model_Space
 70
     0
 10
0.0
 20
0.0
 30
0.0
  3
*Model_Space
  1

  0
ENDBLK
  5
21
330
1F
100
AcDbEntity
  8
0
100
AcDbBlockEnd
  0
BLOCK
  5
5A
330
58
100
AcDbEntity
 67
     1
  8
0
100
AcDbBlockBegin
  2
*Paper_Space
 70
     0
 10
0.0
 20
0.0
 30
0.0
  3
*Paper_Space
  1

  0
ENDBLK
  5
5B
330
58
100
AcDbEntity
 67
     1
  8
0
100
AcDbBlockEnd
  0
BLOCK
  5
5F
330
5D
100
AcDbEntity
 67
     1
  8
0
100
AcDbBlockBegin
  2
*Paper_Space0
 70
     0
 10
0.0
 20
0.0
 30
0.0
  3
*Paper_Space0
  1

  0
ENDBLK
  5
60
330
5D
100
AcDbEntity
 67
     1
  8
0
100
AcDbBlockEnd
  0
ENDSEC
  0
SECTION
  2
ENTITIES
  0
ARC
  5
7BF
330
1F
100
AcDbEntity
  8
001_AR
100
AcDbCircle
 10
72173.22656870722
 20
319354.0479122047
 30
0.0
 40
2.0
100
AcDbArc
 50
134.8497776334057
 51
302.0349854014812
  0
ARC
  5
7C0
330
1F
100
AcDbEntity
  8
001_AR
100
AcDbCircle
 10
72152.83530628251
 20
319345.0559408824
 30
0.0
 40
2.0
100
AcDbArc
 50
314.0755382127776
 51
104.8932451196179
  0
POLYLINE
  5
7C1
330
1F
100
AcDbEntity
  8
001_AR
100
AcDb2dPolyline
 66
     1
 10
0.0
 20
0.0
 30
0.0
 70
   128
  0
VERTEX
  5
7C2
330
7C1
100
AcDbEntity
  8
001_AR
100
AcDbVertex
100
AcDb2dVertex
 10
72126.38261111213
 20
319348.8166748307
 30
0.0
  0
VERTEX
  5
7C3
330
7C1
100
AcDbEntity
  8
001_AR
100
AcDbVertex
100
AcDb2dVertex
 10
72112.95727442845
 20
319341.2848256799
 30
0.0
 42
0.0000491057946245
  0
VERTEX
  5
7C4
330
7C1
100
AcDbEntity
  8
001_AR
100
AcDbVertex
100
AcDb2dVertex
 10
72112.87211395474
 20
319341.2370491509
 30
0.0
 42
0.0000491057946245
  0
SEQEND
  5
7C5
330
7C1
100
AcDbEntity
  8
001_AR
  0
POLYLINE
  5
7C6
330
1F
100
AcDbEntity
  8
001_AR
100
AcDb2dPolyline
 66
     1
 10
0.0
 20
0.0
 30
0.0
 70
   128
  0
VERTEX
  5
7C7
330
7C6
100
AcDbEntity
  8
001_AR
100
AcDbVertex
100
AcDb2dVertex
 10
72125.15941416657
 20
319350.9969934332
 30
0.0
  0
VERTEX
  5
7C8
330
7C6
100
AcDbEntity
  8
001_AR
100
AcDbVertex
100
AcDb2dVertex
 10
72111.73424243448
 20
319343.4652368287
 30
0.0
  0
SEQEND
  5
7C9
330
7C6
100
AcDbEntity
  8
001_AR
  0
ARC
  5
7CA
330
1F
100
AcDbEntity
  8
001_AR
100
AcDbCircle
 10
72228.23610048282
 20
319298.7491652584
 30
0.0
 40
80.0
100
AcDbArc
 50
119.2931888246267
 51
134.8497776334057
  0
ARC
  5
7CB
330
1F
100
AcDbEntity
  8
001_AR
100
AcDbCircle
 10
72158.74674007538
 20
319322.8285939756
 30
0.0
 40
25.0
100
AcDbArc
 50
104.8932451196179
 51
119.2931888246267
  0
POLYLINE
  5
7CC
330
1F
100
AcDbEntity
  8
001_AR
100
AcDb2dPolyline
 66
     1
 10
0.0
 20
0.0
 30
0.0
 70
   128
  0
VERTEX
  5
7CD
330
7CC
100
AcDbEntity
  8
001_AR
100
AcDbVertex
100
AcDb2dVertex
 10
72143.39719693931
 20
319391.9223553215
 30
0.0
 42
0.0764739145768085
  0
VERTEX
  5
7CE
330
7CC
100
AcDbEntity
  8
001_AR
100
AcDbVertex
100
AcDb2dVertex
 10
72158.01215438869
 20
319372.4718752267
 30
0.0
 42
0.3127741643950642
  0
VERTEX
  5
7CF
330
7CC
100
AcDbEntity
  8
001_AR
100
AcDbVertex
100
AcDb2dVertex
 10
72169.24880311934
 20
319370.5721169269
 30
0.0
  0
SEQEND
  5
7D0
330
7CC
100
AcDbEntity
  8
001_AR
  0
POLYLINE
  5
7D1
330
1F
100
AcDbEntity
  8
001_AR
100
AcDb2dPolyline
 66
     1
 10
0.0
 20
0.0
 30
0.0
 70
   128
  0
VERTEX
  5
7D2
330
7D1
100
AcDbEntity
  8
001_AR
100
AcDbVertex
100
AcDb2dVertex
 10
72145.44655707094
 20
319375.5142591273
 30
0.0
  0
VERTEX
  5
7D3
330
7D1
100
AcDbEntity
  8
001_AR
100
AcDbVertex
100
AcDb2dVertex
 10
72144.95966495279
 20
319376.4605273738
 30
0.0
  0
VERTEX
  5
7D4
330
7D1
100
AcDbEntity
  8
001_AR
100
AcDbVertex
100
AcDb2dVertex
 10
72142.17269081094
 20
319381.7378544506
 30
0.0
  0
VERTEX
  5
7D5
330
7D1
100
AcDbEntity
  8
001_AR
100
AcDbVertex
100
AcDb2dVertex
 10
72138.1465011744
 20
319389.0188756876
 30
0.0
  0
SEQEND
  5
7D6
330
7D1
100
AcDbEntity
  8
001_AR
  0
POLYLINE
  5
7D7
330
1F
100
AcDbEntity
  8
001_AR
 48
0.1
100
AcDb2dPolyline
 66
     1
 10
0.0
 20
0.0
 30
0.0
 70
   128
  0
VERTEX
  5
7D8
330
7D7
100
AcDbEntity
  8
001_AR
 48
0.1
100
AcDbVertex
100
AcDb2dVertex
 10
72147.05045133298
 20
319372.3589204881
 30
0.0
 42
0.0054485400679814
  0
VERTEX
  5
7D9
330
7D7
100
AcDbEntity
  8
001_AR
 48
0.1
100
AcDbVertex
100
AcDb2dVertex
 10
72146.94660306609
 20
319372.5989400235
 30
0.0
  0
VERTEX
  5
7DA
330
7D7
100
AcDbEntity
  8
001_AR
 48
0.1
100
AcDbVertex
100
AcDb2dVertex
 10
72145.44655707094
 20
319375.5142591273
 30
0.0
  0
SEQEND
  5
7DB
330
7D7
100
AcDbEntity
  8
001_AR
 48
0.1
  0
POLYLINE
  5
7DC
330
1F
100
AcDbEntity
  8
001_AR
100
AcDb2dPolyline
 66
     1
 10
0.0
 20
0.0
 30
0.0
 70
   128
  0
VERTEX
  5
7DD
330
7DC
100
AcDbEntity
  8
001_AR
100
AcDbVertex
100
AcDb2dVertex
 10
72127.36116867001
 20
319347.072419945
 30
0.0
 42
0.0504441059638147
  0
VERTEX
  5
7DE
330
7DC
100
AcDbEntity
  8
001_AR
100
AcDbVertex
100
AcDb2dVertex
 10
72143.83390758082
 20
319358.6362427414
 30
0.0
 42
0.3245714575334786
  0
VERTEX
  5
7DF
330
7DC
100
AcDbEntity
  8
001_AR
100
AcDbVertex
100
AcDb2dVertex
 10
72147.05045133298
 20
319372.3589204881
 30
0.0
  0
SEQEND
  5
7E0
330
7DC
100
AcDbEntity
  8
001_AR
  0
POLYLINE
  5
7E1
330
1F
100
AcDbEntity
  8
001_AR
100
AcDb2dPolyline
 66
     1
 10
0.0
 20
0.0
 30
0.0
 70
   128
  0
VERTEX
  5
7E2
330
7E1
100
AcDbEntity
  8
001_AR
100
AcDbVertex
100
AcDb2dVertex
 10
72126.38261111214
 20
319348.8166748306
 30
0.0
 42
0.0504441059638055
  0
VERTEX
  5
7E3
330
7E1
100
AcDbEntity
  8
001_AR
100
AcDbVertex
100
AcDb2dVertex
 10
72142.52589524473
 20
319360.1492211711
 30
0.0
 42
0.3047526141476248
  0
VERTEX
  5
7E4
330
7E1
100
AcDbEntity
  8
001_AR
100
AcDbVertex
100
AcDb2dVertex
 10
72145.4613285465
 20
319370.9102038755
 30
0.0
 42
0.3245714575329328
  0
SEQEND
  5
7E5
330
7E1
100
AcDbEntity
  8
001_AR
  0
POLYLINE
  5
7E6
330
1F
100
AcDbEntity
  8
001_AR
100
AcDb2dPolyline
 66
     1
 10
0.0
 20
0.0
 30
0.0
 70
   128
  0
VERTEX
  5
7E7
330
7E6
100
AcDbEntity
  8
001_AR
100
AcDbVertex
100
AcDb2dVertex
 10
72125.15941416657
 20
319350.9969934332
 30
0.0
 42
0.0504441057208
  0
VERTEX
  5
7E8
330
7E6
100
AcDbEntity
  8
001_AR
100
AcDbVertex
100
AcDb2dVertex
 10
72140.89087982462
 20
319362.0404442082
 30
0.0
 42
0.3121086536347859
  0
VERTEX
  5
7E9
330
7E6
100
AcDbEntity
  8
001_AR
100
AcDbVertex
100
AcDb2dVertex
 10
72143.02549285334
 20
319370.301234711
 30
0.0
 42
0.3245714575344964
  0
SEQEND
  5
7EA
330
7E6
100
AcDbEntity
  8
001_AR
  0
ARC
  5
7EB
330
1F
100
AcDbEntity
  8
001_AR
100
AcDbCircle
 10
72043.15643944442
 20
319315.4380064604
 30
0.0
 40
15.0
100
AcDbArc
 50
300.718393466112
 51
323.9169839772813
  0
LINE
  5
7EC
330
1F
100
AcDbEntity
  8
001_AR
100
AcDbLine
 10
72057.95094963786
 20
319310.2702217811
 30
0.0
 11
72055.27890697015
 21
319306.6036541305
 31
0.0
  0
LINE
  5
7ED
330
1F
100
AcDbEntity
  8
001_AR
100
AcDbLine
 10
72077.72378121574
 20
319322.0190571019
 30
0.0
 11
72091.56776720779
 21
319327.5410618732
 31
0.0
  0
LINE
  5
7EE
330
1F
100
AcDbEntity
  8
001_AR
 48
0.1
100
AcDbLine
 10
72077.72378121539
 20
319322.0190571016
 30
0.0
 11
72057.95094963783
 21
319310.2702217811
 31
0.0
  0
LINE
  5
7EF
330
1F
100
AcDbEntity
  8
001_AR
100
AcDbLine
 10
72082.29933119632
 20
319326.4826253507
 30
0.0
 11
72057.18472124735
 21
319311.5597542754
 31
0.0
  0
ARC
  5
7F0
330
1F
100
AcDbEntity
  8
001_AR
100
AcDbCircle
 10
72144.07912292561
 20
319326.0660178342
 30
0.0
 40
15.0
100
AcDbArc
 50
119.2931888238995
 51
142.4917793369353
  0
LINE
  5
7F1
330
1F
100
AcDbEntity
  8
001_AR
100
AcDbLine
 10
72129.41772235835
 20
319331.6001721292
 30
0.0
 11
72132.18013309847
 21
319335.1991466022
 31
0.0
  0
LINE
  5
7F2
330
1F
100
AcDbEntity
  8
001_AR
100
AcDbLine
 10
72109.35879117384
 20
319320.3467602139
 30
0.0
 11
72095.76334210044
 21
319315.3121034161
 31
0.0
  0
LINE
  5
7F3
330
1F
100
AcDbEntity
  8
001_AR
100
AcDbLine
 10
72109.3587911742
 20
319320.3467602141
 30
0.0
 11
72129.41772235867
 21
319331.6001721295
 31
0.0
  0
LINE
  5
7F4
330
1F
100
AcDbEntity
  8
001_AR
100
AcDbLine
 10
72109.99006689251
 20
319318.9809848366
 30
0.0
 11
72130.15164052674
 21
319330.2919809649
 31
0.0
  0
ARC
  5
7F5
330
1F
100
AcDbEntity
  8
001_AR
100
AcDbCircle
 10
72069.32709154959
 20
319383.2741690214
 30
0.0
 40
60.0
100
AcDbArc
 50
291.7536786965969
 51
299.8930370912928
  0
POLYLINE
  5
7F6
330
1F
100
AcDbEntity
  8
001_AR
100
AcDb2dPolyline
 66
     1
 10
0.0
 20
0.0
 30
0.0
 70
   128
  0
VERTEX
  5
7F7
330
7F6
100
AcDbEntity
  8
001_AR
100
AcDbVertex
100
AcDb2dVertex
 10
72097.71087602375
 20
319322.2676521695
 30
0.0
 42
-0.0006718016941041
  0
VERTEX
  5
7F8
330
7F6
100
AcDbEntity
  8
001_AR
100
AcDbVertex
100
AcDb2dVertex
 10
72096.5244576014
 20
319321.638466216
 30
0.0
  0
VERTEX
  5
7F9
330
7F6
100
AcDbEntity
  8
001_AR
100
AcDbVertex
100
AcDb2dVertex
 10
72084.33245416974
 20
319315.1937297365
 30
0.0
 42
0.00624879935734
  0
SEQEND
  5
7FA
330
7F6
100
AcDbEntity
  8
001_AR
  0
POLYLINE
  5
7FB
330
1F
100
AcDbEntity
  8
001_AR
100
AcDb2dPolyline
 66
     1
 10
0.0
 20
0.0
 30
0.0
 70
   128
  0
VERTEX
  5
7FC
330
7FB
100
AcDbEntity
  8
001_AR
100
AcDbVertex
100
AcDb2dVertex
 10
72096.35936845272
 20
319324.6651669746
 30
0.0
 42
0.0006960800675237
  0
VERTEX
  5
7FD
330
7FB
100
AcDbEntity
  8
001_AR
100
AcDbVertex
100
AcDb2dVertex
 10
72095.16225318056
 20
319323.9558818502
 30
0.0
  0
VERTEX
  5
7FE
330
7FB
100
AcDbEntity
  8
001_AR
100
AcDbVertex
100
AcDb2dVertex
 10
72083.35418700272
 20
319316.9374307219
 30
0.0
 42
-0.006251768252841
  0
SEQEND
  5
7FF
330
7FB
100
AcDbEntity
  8
001_AR
  0
POLYLINE
  5
800
330
1F
100
AcDbEntity
  8
001_AR
100
AcDb2dPolyline
 66
     1
 10
0.0
 20
0.0
 30
0.0
 70
   128
  0
VERTEX
  5
801
330
800
100
AcDbEntity
  8
001_AR
100
AcDbVertex
100
AcDb2dVertex
 10
72112.95743938112
 20
319341.2849182215
 30
0.0
  0
VERTEX
  5
802
330
800
100
AcDbEntity
  8
001_AR
100
AcDbVertex
100
AcDb2dVertex
 10
72102.92827392736
 20
319335.6583806472
 30
0.0
 42
0.006042114810365
  0
VERTEX
  5
803
330
800
100
AcDbEntity
  8
001_AR
100
AcDbVertex
100
AcDb2dVertex
 10
72092.33628655923
 20
319329.5466536821
 30
0.0
 42
0.002668200319717
  0
SEQEND
  5
804
330
800
100
AcDbEntity
  8
001_AR
  0
POLYLINE
  5
805
330
1F
100
AcDbEntity
  8
001_AR
100
AcDb2dPolyline
 66
     1
 10
0.0
 20
0.0
 30
0.0
 70
   128
  0
VERTEX
  5
806
330
805
100
AcDbEntity
  8
001_AR
100
AcDbVertex
100
AcDb2dVertex
 10
72111.73424243387
 20
319343.4652368285
 30
0.0
  0
VERTEX
  5
807
330
805
100
AcDbEntity
  8
001_AR
100
AcDbVertex
100
AcDb2dVertex
 10
72101.70507698011
 20
319337.8386992542
 30
0.0
 42
0.0062532317920672
  0
VERTEX
  5
808
330
805
100
AcDbEntity
  8
001_AR
100
AcDbVertex
100
AcDb2dVertex
 10
72090.70779302009
 20
319331.4869196998
 30
0.0
  0
VERTEX
  5
809
330
805
100
AcDbEntity
  8
001_AR
100
AcDbVertex
100
AcDb2dVertex
 10
72087.02443761245
 20
319329.2976154118
 30
0.0
 42
-0.0062517682528423
  0
SEQEND
  5
80A
330
805
100
AcDbEntity
  8
001_AR
  0
ARC
  5
80B
330
1F
100
AcDbEntity
  8
001_AR
100
AcDbCircle
 10
72097.0567601037
 20
319323.4786070938
 30
0.0
 40
1.376328255028391
100
AcDbArc
 50
298.3763817713256
 51
120.4445650811516
  0
ARC
  5
80C
330
1F
100
AcDbEntity
  8
001_AR
100
AcDbCircle
 10
72083.86512463729
 20
319316.0778129385
 30
0.0
 40
1.0
100
AcDbArc
 50
120.7263053140851
 51
297.8610898694859
  0
LINE
  5
80D
330
1F
100
AcDbEntity
  8
001_AR
100
AcDbLine
 10
72143.11564934206
 20
319374.0337628729
 30
0.0
 11
72145.22304411633
 21
319375.11810012
 31
0.0
  0
LINE
  5
80E
330
1F
100
AcDbEntity
  8
001_AR
100
AcDbLine
 10
72145.95135178015
 20
319372.1190090383
 30
0.0
 11
72146.5956229101
 21
319372.4505117981
 31
0.0
  0
LINE
  5
80F
330
1F
100
AcDbEntity
  8
001_AR
100
AcDbLine
 10
72096.98653904784
 20
319313.1317848092
 30
0.0
 11
72095.76334210049
 21
319315.3121034161
 31
0.0
  0
LINE
  5
810
330
1F
100
AcDbEntity
  8
001_AR
100
AcDbLine
 10
72096.98653904785
 20
319313.1317848092
 30
0.0
 11
72099.83468500841
 21
319314.1865081467
 31
0.0
  0
LINE
  5
811
330
1F
100
AcDbEntity
  8
001_AR
100
AcDbLine
 10
72099.83468500841
 20
319314.1865081467
 30
0.0
 11
72109.99006689251
 21
319318.9809848366
 31
0.0
  0
ARC
  5
812
330
1F
100
AcDbEntity
  8
001_AR
100
AcDbCircle
 10
72146.40887804472
 20
319371.2298129311
 30
0.0
 40
1.0
100
AcDbArc
 50
117.2275967169996
 51
198.6392838780187
  0
ARC
  5
813
330
1F
100
AcDbEntity
  8
001_AR
100
AcDbCircle
 10
72146.40887804472
 20
319371.2298129311
 30
0.0
 40
3.5
100
AcDbArc
 50
175.5693259659839
 51
198.6392838780187
  0
LINE
  5
814
330
1F
100
AcDbEntity
  8
001_AR
100
AcDbLine
 10
72143.11564934206
 20
319374.0337628729
 30
0.0
 11
72142.91933766584
 21
319371.5001977386
 31
0.0
  0
ARC
  5
815
330
1F
100
AcDbEntity
  8
001_AR
100
AcDbCircle
 10
72486.40023121674
 20
319581.8069518275
 30
0.0
 40
56.5
100
AcDbArc
 50
145.8958034723146
 51
165.0375447091066
  0
LINE
  5
816
330
1F
100
AcDbEntity
  8
001_AR
100
AcDbLine
 10
72439.61714249549
 20
319613.4864816488
 30
0.0
 11
72458.90186222858
 21
319641.9654003488
 31
0.0
  0
POLYLINE
  5
817
330
1F
100
AcDbEntity
  8
001_AR
100
AcDb2dPolyline
 66
     1
 10
0.0
 20
0.0
 30
0.0
  0
VERTEX
  5
818
330
817
100
AcDbEntity
  8
001_AR
100
AcDbVertex
100
AcDb2dVertex
 10
72468.62951315242
 20
319664.7959367358
 30
0.0
 42
-0.5365449943956026
  0
VERTEX
  5
819
330
817
100
AcDbEntity
  8
001_AR
100
AcDbVertex
100
AcDb2dVertex
 10
72460.92282766255
 20
319669.42362477
 30
0.0
 42
-0.1244549986317124
  0
VERTEX
  5
81A
330
817
100
AcDbEntity
  8
001_AR
100
AcDbVertex
100
AcDb2dVertex
 10
72464.47709704043
 20
319687.5656385064
 30
0.0
 42
-4.633580105492308
  0
SEQEND
  5
81B
330
817
100
AcDbEntity
  8
001_AR
  0
LINE
  5
81C
330
1F
100
AcDbEntity
  8
001_AR
100
AcDbLine
 10
72440.3959
 20
319739.2471
 30
0.0
 11
72428.30717213747
 21
319715.2659874403
 31
0.0
  0
LINE
  5
81D
330
1F
100
AcDbEntity
  8
001_AR
100
AcDbLine
 10
72438.92147674626
 20
319719.6605555116
 30
0.0
 11
72436.54155392594
 21
319714.9393641931
 31
0.0
  0
LINE
  5
81E
330
1F
100
AcDbEntity
  8
001_AR
100
AcDbLine
 10
72438.92147674638
 20
319719.6605555119
 30
0.0
 11
72452.5382
 21
319743.3228
 31
0.0
  0
POLYLINE
  5
81F
330
1F
100
AcDbEntity
  8
001_AR
100
AcDb2dPolyline
 66
     1
 10
0.0
 20
0.0
 30
0.0
 70
   128
  0
VERTEX
  5
820
330
81F
100
AcDbEntity
  8
001_AR
100
AcDbVertex
100
AcDb2dVertex
 10
72146.51477060215
 20
319344.6317800456
 30
0.0
  0
VERTEX
  5
821
330
81F
100
AcDbEntity
  8
001_AR
100
AcDbVertex
100
AcDb2dVertex
 10
72136.73994124177
 20
319339.1479294764
 30
0.0
 42
-0.0000495909697016
  0
SEQEND
  5
822
330
81F
100
AcDbEntity
  8
001_AR
  0
LINE
  5
823
330
1F
100
AcDbEntity
  8
001_AR
100
AcDbLine
 10
72425.85390968735
 20
319710.3993080325
 30
0.0
 11
72428.3071721375
 21
319715.2659874403
 31
0.0
  0
ARC
  5
824
330
1F
100
AcDbEntity
  8
001_AR
100
AcDbCircle
 10
72453.10572734273
 20
319645.8902978488
 30
0.0
 40
7.0
100
AcDbArc
 50
325.8958034723146
 51
158.7521853484555
  0
ARC
  5
825
330
1F
100
AcDbEntity
  8
001_AR
100
AcDbCircle
 10
72438.3143086582
 20
319689.1595926823
 30
0.0
 40
7.0
100
AcDbArc
 50
184.3653512557548
 51
301.3219887287677
  0
ARC
  5
826
330
1F
100
AcDbEntity
  8
001_AR
100
AcDbCircle
 10
72431.556297734
 20
319700.2649647314
 30
0.0
 40
20.0
100
AcDbArc
 50
301.3219887287677
 51
332.0754970086813
  0
ARC
  5
827
330
1F
100
AcDbEntity
  8
001_AR
100
AcDbCircle
 10
72481.18956413454
 20
319692.432583339
 30
0.0
 40
50.0
100
AcDbArc
 50
153.2476146645754
 51
184.3653512557548
  0
LINE
  5
828
330
1F
100
AcDbEntity
  8
001_AR
100
AcDbLine
 10
72429.87667260079
 20
319669.1530907321
 30
0.0
 11
72425.46838596897
 21
319671.6614817614
 31
0.0
  0
ARC
  5
829
330
1F
100
AcDbEntity
  8
001_AR
100
AcDbCircle
 10
72366.58716149459
 20
319667.3503757293
 30
0.0
 40
70.0
100
AcDbArc
 50
339.5828046371233
 51
351.4459861562552
  0
ARC
  5
82A
330
1F
100
AcDbEntity
  8
001_AR
100
AcDbCircle
 10
72423.9419741983
 20
319658.7233565614
 30
0.0
 40
12.0
100
AcDbArc
 50
351.4459861562552
 51
60.35937821914949
  0
ARC
  5
82B
330
1F
100
AcDbEntity
  8
001_AR
100
AcDbCircle
 10
72434.37043357271
 20
319687.3060830175
 30
0.0
 40
18.0
100
AcDbArc
 50
164.2088087753534
 51
240.3593782191494
  0
LINE
  5
82C
330
1F
100
AcDbEntity
  8
001_AR
100
AcDbLine
 10
72082.29933119635
 20
319326.4826253506
 30
0.0
 11
72087.02443761245
 21
319329.2976154118
 31
0.0
  0
LINE
  5
845
330
1F
100
AcDbEntity
  8
001_AR
100
AcDbLine
 10
72505.0948238387
 20
319720.2500112385
 30
0.0
 11
72500.26245168033
 21
319724.3090339791
 31
0.0
  0
ARC
  5
846
330
1F
100
AcDbEntity
  8
001_AR
100
AcDbCircle
 10
72484.18304406591
 20
319705.1660809475
 30
0.0
 40
25.0
100
AcDbArc
 50
49.9709216340462
 51
64.7009872527904
  0
ARC
  5
847
330
1F
100
AcDbEntity
  8
001_AR
100
AcDbCircle
 10
72513.16481891209
 20
319732.6271243308
 30
0.0
 40
10.0
100
AcDbArc
 50
157.0917419244711
 51
229.9709216334078
  0
ARC
  5
848
330
1F
100
AcDbEntity
  8
001_AR
100
AcDbCircle
 10
72550.00999136531
 20
319717.0568556468
 30
0.0
 40
50.0
100
AcDbArc
 50
133.8988010791472
 51
157.0917419244711
  0
ARC
  5
849
330
1F
100
AcDbEntity
  8
001_AR
100
AcDbCircle
 10
72493.58457434086
 20
319725.0560590392
 30
0.0
 40
3.0
100
AcDbArc
 50
64.7009872527904
 51
140.78138488647
  0
LINE
  5
84A
330
1F
100
AcDbEntity
  8
001_AR
100
AcDbLine
 10
72130.1516405274
 20
319330.2919809647
 30
0.0
 11
72137.97911287767
 21
319331.9444568635
 31
0.0
  0
LINE
  5
84B
330
1F
100
AcDbEntity
  8
001_AR
100
AcDbLine
 10
72129.67734799
 20
319331.7249139104
 30
0.0
 11
72141.08965467926
 21
319334.1341925268
 31
0.0
  0
POLYLINE
  5
84C
330
1F
100
AcDbEntity
  8
001_AR
100
AcDb2dPolyline
 66
     1
 10
0.0
 20
0.0
 30
0.0
  0
VERTEX
  5
84D
330
84C
100
AcDbEntity
  8
001_AR
100
AcDbVertex
100
AcDb2dVertex
 10
72641.19650176676
 20
319831.8242332897
 30
0.0
  0
VERTEX
  5
84E
330
84C
100
AcDbEntity
  8
001_AR
100
AcDbVertex
100
AcDb2dVertex
 10
72606.9203784415
 20
319814.2879729269
 30
0.0
  0
VERTEX
  5
84F
330
84C
100
AcDbEntity
  8
001_AR
100
AcDbVertex
100
AcDb2dVertex
 10
72606.02455588721
 20
319813.8296460622
 30
0.0
  0
VERTEX
  5
850
330
84C
100
AcDbEntity
  8
001_AR
100
AcDbVertex
100
AcDb2dVertex
 10
72605.12891421276
 20
319813.3713608777
 30
0.0
  0
VERTEX
  5
851
330
84C
100
AcDbEntity
  8
001_AR
100
AcDbVertex
100
AcDb2dVertex
 10
72604.23347403902
 20
319812.9130770837
 30
0.0
  0
VERTEX
  5
852
330
84C
100
AcDbEntity
  8
001_AR
100
AcDbVertex
100
AcDb2dVertex
 10
72603.33825598779
 20
319812.4547544182
 30
0.0
  0
VERTEX
  5
853
330
84C
100
AcDbEntity
  8
001_AR
100
AcDbVertex
100
AcDb2dVertex
 10
72602.44328068531
 20
319811.9963526488
 30
0.0
  0
VERTEX
  5
854
330
84C
100
AcDbEntity
  8
001_AR
100
AcDbVertex
100
AcDb2dVertex
 10
72601.54856876823
 20
319811.5378315758
 30
0.0
  0
VERTEX
  5
855
330
84C
100
AcDbEntity
  8
001_AR
100
AcDbVertex
100
AcDb2dVertex
 10
72600.65414089058
 20
319811.0791510355
 30
0.0
  0
VERTEX
  5
856
330
84C
100
AcDbEntity
  8
001_AR
100
AcDbVertex
100
AcDb2dVertex
 10
72599.76001772632
 20
319810.620270902
 30
0.0
  0
VERTEX
  5
857
330
84C
100
AcDbEntity
  8
001_AR
100
AcDbVertex
100
AcDb2dVertex
 10
72598.86621997736
 20
319810.1611510909
 30
0.0
  0
VERTEX
  5
858
330
84C
100
AcDbEntity
  8
001_AR
100
AcDbVertex
100
AcDb2dVertex
 10
72597.97276837745
 20
319809.7017515617
 30
0.0
  0
VERTEX
  5
859
330
84C
100
AcDbEntity
  8
001_AR
100
AcDbVertex
100
AcDb2dVertex
 10
72597.07968369835
 20
319809.2420323207
 30
0.0
  0
VERTEX
  5
85A
330
84C
100
AcDbEntity
  8
001_AR
100
AcDbVertex
100
AcDb2dVertex
 10
72596.18698675405
 20
319808.7819534234
 30
0.0
  0
VERTEX
  5
85B
330
84C
100
AcDbEntity
  8
001_AR
100
AcDbVertex
100
AcDb2dVertex
 10
72595.29469840815
 20
319808.3214749785
 30
0.0
  0
VERTEX
  5
85C
330
84C
100
AcDbEntity
  8
001_AR
100
AcDbVertex
100
AcDb2dVertex
 10
72594.40283957684
 20
319807.8605571489
 30
0.0
  0
VERTEX
  5
85D
330
84C
100
AcDbEntity
  8
001_AR
100
AcDbVertex
100
AcDb2dVertex
 10
72593.51143123601
 20
319807.3991601564
 30
0.0
  0
VERTEX
  5
85E
330
84C
100
AcDbEntity
  8
001_AR
100
AcDbVertex
100
AcDb2dVertex
 10
72592.62049442602
 20
319806.9372442836
 30
0.0
  0
VERTEX
  5
85F
330
84C
100
AcDbEntity
  8
001_AR
100
AcDbVertex
100
AcDb2dVertex
 10
72591.73005025614
 20
319806.4747698764
 30
0.0
  0
VERTEX
  5
860
330
84C
100
AcDbEntity
  8
001_AR
100
AcDbVertex
100
AcDb2dVertex
 10
72590.84011991204
 20
319806.0116973483
 30
0.0
  0
VERTEX
  5
861
330
84C
100
AcDbEntity
  8
001_AR
100
AcDbVertex
100
AcDb2dVertex
 10
72589.95072465806
 20
319805.5479871817
 30
0.0
  0
VERTEX
  5
862
330
84C
100
AcDbEntity
  8
001_AR
100
AcDbVertex
100
AcDb2dVertex
 10
72589.0618858455
 20
319805.0835999319
 30
0.0
  0
VERTEX
  5
863
330
84C
100
AcDbEntity
  8
001_AR
100
AcDbVertex
100
AcDb2dVertex
 10
72588.17362491549
 20
319804.6184962298
 30
0.0
  0
VERTEX
  5
864
330
84C
100
AcDbEntity
  8
001_AR
100
AcDbVertex
100
AcDb2dVertex
 10
72587.28596340527
 20
319804.1526367842
 30
0.0
  0
VERTEX
  5
865
330
84C
100
AcDbEntity
  8
001_AR
100
AcDbVertex
100
AcDb2dVertex
 10
72586.40075502635
 20
319803.6869461984
 30
0.0
  0
VERTEX
  5
866
330
84C
100
AcDbEntity
  8
001_AR
100
AcDbVertex
100
AcDb2dVertex
 10
72585.51443599234
 20
319803.2195016061
 30
0.0
  0
VERTEX
  5
867
330
84C
100
AcDbEntity
  8
001_AR
100
AcDbVertex
100
AcDb2dVertex
 10
72584.62878148269
 20
319802.7511841522
 30
0.0
  0
VERTEX
  5
868
330
84C
100
AcDbEntity
  8
001_AR
100
AcDbVertex
100
AcDb2dVertex
 10
72583.74381346468
 20
319802.2819549006
 30
0.0
  0
VERTEX
  5
869
330
84C
100
AcDbEntity
  8
001_AR
100
AcDbVertex
100
AcDb2dVertex
 10
72582.85955402737
 20
319801.8117750086
 30
0.0
  0
VERTEX
  5
86A
330
84C
100
AcDbEntity
  8
001_AR
100
AcDbVertex
100
AcDb2dVertex
 10
72581.97602538659
 20
319801.3406057301
 30
0.0
  0
VERTEX
  5
86B
330
84C
100
AcDbEntity
  8
001_AR
100
AcDbVertex
100
AcDb2dVertex
 10
72581.69547369118
 20
319801.1905558745
 30
0.0
 42
0.0654632108487827
  0
VERTEX
  5
86C
330
84C
100
AcDbEntity
  8
001_AR
100
AcDbVertex
100
AcDb2dVertex
 10
72518.84373402494
 20
319756.4015339568
 30
0.0
 42
0.0040743119057919
  0
VERTEX
  5
86D
330
84C
100
AcDbEntity
  8
001_AR
100
AcDbVertex
100
AcDb2dVertex
 10
72515.34065383914
 20
319753.0851366979
 30
0.0
  0
SEQEND
  5
86E
330
84C
100
AcDbEntity
  8
001_AR
  0
POLYLINE
  5
86F
330
1F
100
AcDbEntity
  8
001_AR
100
AcDb2dPolyline
 66
     1
 10
0.0
 20
0.0
 30
0.0
  0
VERTEX
  5
870
330
86F
100
AcDbEntity
  8
001_AR
100
AcDbVertex
100
AcDb2dVertex
 10
72637.55275475996
 20
319838.946248998
 30
0.0
  0
VERTEX
  5
871
330
86F
100
AcDbEntity
  8
001_AR
100
AcDbVertex
100
AcDb2dVertex
 10
72603.27657801662
 20
319821.4099613054
 30
0.0
  0
VERTEX
  5
872
330
86F
100
AcDbEntity
  8
001_AR
100
AcDbVertex
100
AcDb2dVertex
 10
72602.38075546233
 20
319820.9516344407
 30
0.0
  0
VERTEX
  5
873
330
86F
100
AcDbEntity
  8
001_AR
100
AcDbVertex
100
AcDb2dVertex
 10
72601.48479328225
 20
319820.4931852678
 30
0.0
  0
VERTEX
  5
874
330
86F
100
AcDbEntity
  8
001_AR
100
AcDbVertex
100
AcDb2dVertex
 10
72600.58871212044
 20
319820.0345734544
 30
0.0
  0
VERTEX
  5
875
330
86F
100
AcDbEntity
  8
001_AR
100
AcDbVertex
100
AcDb2dVertex
 10
72599.69253264178
 20
319819.5757586511
 30
0.0
  0
VERTEX
  5
876
330
86F
100
AcDbEntity
  8
001_AR
100
AcDbVertex
100
AcDb2dVertex
 10
72598.79627553938
 20
319819.1167004961
 30
0.0
  0
VERTEX
  5
877
330
86F
100
AcDbEntity
  8
001_AR
100
AcDbVertex
100
AcDb2dVertex
 10
72597.89996153947
 20
319818.657358617
 30
0.0
  0
VERTEX
  5
878
330
86F
100
AcDbEntity
  8
001_AR
100
AcDbVertex
100
AcDb2dVertex
 10
72597.00361140529
 20
319818.1976926331
 30
0.0
  0
VERTEX
  5
879
330
86F
100
AcDbEntity
  8
001_AR
100
AcDbVertex
100
AcDb2dVertex
 10
72596.10724594544
 20
319817.7376621597
 30
0.0
  0
VERTEX
  5
87A
330
86F
100
AcDbEntity
  8
001_AR
100
AcDbVertex
100
AcDb2dVertex
 10
72595.21088601667
 20
319817.2772268097
 30
0.0
  0
VERTEX
  5
87B
330
86F
100
AcDbEntity
  8
001_AR
100
AcDbVertex
100
AcDb2dVertex
 10
72594.31455253087
 20
319816.8163461966
 30
0.0
  0
VERTEX
  5
87C
330
86F
100
AcDbEntity
  8
001_AR
100
AcDbVertex
100
AcDb2dVertex
 10
72593.41826645976
 20
319816.3549799379
 30
0.0
  0
VERTEX
  5
87D
330
86F
100
AcDbEntity
  8
001_AR
100
AcDbVertex
100
AcDb2dVertex
 10
72592.52204884145
 20
319815.8930876577
 30
0.0
  0
VERTEX
  5
87E
330
86F
100
AcDbEntity
  8
001_AR
100
AcDbVertex
100
AcDb2dVertex
 10
72591.62592078388
 20
319815.4306289889
 30
0.0
  0
VERTEX
  5
87F
330
86F
100
AcDbEntity
  8
001_AR
100
AcDbVertex
100
AcDb2dVertex
 10
72590.72990347272
 20
319814.9675635774
 30
0.0
  0
VERTEX
  5
880
330
86F
100
AcDbEntity
  8
001_AR
100
AcDbVertex
100
AcDb2dVertex
 10
72589.83401817495
 20
319814.5038510841
 30
0.0
  0
VERTEX
  5
881
330
86F
100
AcDbEntity
  8
001_AR
100
AcDbVertex
100
AcDb2dVertex
 10
72588.9382862449
 20
319814.0394511878
 30
0.0
  0
VERTEX
  5
882
330
86F
100
AcDbEntity
  8
001_AR
100
AcDbVertex
100
AcDb2dVertex
 10
72588.04272913058
 20
319813.5743235889
 30
0.0
  0
VERTEX
  5
883
330
86F
100
AcDbEntity
  8
001_AR
100
AcDbVertex
100
AcDb2dVertex
 10
72587.14736837688
 20
319813.1084280111
 30
0.0
  0
VERTEX
  5
884
330
86F
100
AcDbEntity
  8
001_AR
100
AcDbVertex
100
AcDb2dVertex
 10
72586.25222563406
 20
319812.641724206
 30
0.0
  0
VERTEX
  5
885
330
86F
100
AcDbEntity
  8
001_AR
100
AcDbVertex
100
AcDb2dVertex
 10
72585.3573226601
 20
319812.1741719544
 30
0.0
  0
VERTEX
  5
886
330
86F
100
AcDbEntity
  8
001_AR
100
AcDbVertex
100
AcDb2dVertex
 10
72584.46268132854
 20
319811.7057310709
 30
0.0
  0
VERTEX
  5
887
330
86F
100
AcDbEntity
  8
001_AR
100
AcDbVertex
100
AcDb2dVertex
 10
72583.56832363284
 20
319811.2363614063
 30
0.0
  0
VERTEX
  5
888
330
86F
100
AcDbEntity
  8
001_AR
100
AcDbVertex
100
AcDb2dVertex
 10
72582.67243961882
 20
319810.7650590376
 30
0.0
  0
VERTEX
  5
889
330
86F
100
AcDbEntity
  8
001_AR
100
AcDbVertex
100
AcDb2dVertex
 10
72581.77863706736
 20
319810.2936676387
 30
0.0
  0
VERTEX
  5
88A
330
86F
100
AcDbEntity
  8
001_AR
100
AcDbVertex
100
AcDb2dVertex
 10
72580.88518504138
 20
319809.8212270048
 30
0.0
  0
VERTEX
  5
88B
330
86F
100
AcDbEntity
  8
001_AR
100
AcDbVertex
100
AcDb2dVertex
 10
72579.99210607423
 20
319809.347697152
 30
0.0
  0
VERTEX
  5
88C
330
86F
100
AcDbEntity
  8
001_AR
100
AcDbVertex
100
AcDb2dVertex
 10
72579.09942284626
 20
319808.873038148
 30
0.0
  0
VERTEX
  5
88D
330
86F
100
AcDbEntity
  8
001_AR
100
AcDbVertex
100
AcDb2dVertex
 10
72578.20715819037
 20
319808.3972101163
 30
0.0
  0
VERTEX
  5
88E
330
86F
100
AcDbEntity
  8
001_AR
100
AcDbVertex
100
AcDb2dVertex
 10
72577.31533509684
 20
319807.9201732383
 30
0.0
  0
VERTEX
  5
88F
330
86F
100
AcDbEntity
  8
001_AR
100
AcDbVertex
100
AcDb2dVertex
 10
72576.423976719
 20
319807.4418877575
 30
0.0
  0
VERTEX
  5
890
330
86F
100
AcDbEntity
  8
001_AR
100
AcDbVertex
100
AcDb2dVertex
 10
72575.53310637861
 20
319806.9623139826
 30
0.0
  0
VERTEX
  5
891
330
86F
100
AcDbEntity
  8
001_AR
100
AcDbVertex
100
AcDb2dVertex
 10
72574.64274757106
 20
319806.4814122906
 30
0.0
  0
VERTEX
  5
892
330
86F
100
AcDbEntity
  8
001_AR
100
AcDbVertex
100
AcDb2dVertex
 10
72573.75292397044
 20
319805.9991431307
 30
0.0
  0
VERTEX
  5
893
330
86F
100
AcDbEntity
  8
001_AR
100
AcDbVertex
100
AcDb2dVertex
 10
72572.86365943527
 20
319805.5154670277
 30
0.0
  0
VERTEX
  5
894
330
86F
100
AcDbEntity
  8
001_AR
100
AcDbVertex
100
AcDb2dVertex
 10
72571.97497801334
 20
319805.0303445849
 30
0.0
  0
VERTEX
  5
895
330
86F
100
AcDbEntity
  8
001_AR
100
AcDbVertex
100
AcDb2dVertex
 10
72571.08690394707
 20
319804.5437364885
 30
0.0
  0
VERTEX
  5
896
330
86F
100
AcDbEntity
  8
001_AR
100
AcDbVertex
100
AcDb2dVertex
 10
72570.19946167885
 20
319804.0556035107
 30
0.0
  0
VERTEX
  5
897
330
86F
100
AcDbEntity
  8
001_AR
100
AcDbVertex
100
AcDb2dVertex
 10
72569.31267585581
 20
319803.5659065134
 30
0.0
  0
VERTEX
  5
898
330
86F
100
AcDbEntity
  8
001_AR
100
AcDbVertex
100
AcDb2dVertex
 10
72568.42657133552
 20
319803.0746064521
 30
0.0
  0
VERTEX
  5
899
330
86F
100
AcDbEntity
  8
001_AR
100
AcDbVertex
100
AcDb2dVertex
 10
72567.54117319111
 20
319802.5816643794
 30
0.0
  0
VERTEX
  5
89A
330
86F
100
AcDbEntity
  8
001_AR
100
AcDbVertex
100
AcDb2dVertex
 10
72566.65650671574
 20
319802.0870414488
 30
0.0
  0
VERTEX
  5
89B
330
86F
100
AcDbEntity
  8
001_AR
100
AcDbVertex
100
AcDb2dVertex
 10
72565.77259742835
 20
319801.5906989186
 30
0.0
  0
VERTEX
  5
89C
330
86F
100
AcDbEntity
  8
001_AR
100
AcDbVertex
100
AcDb2dVertex
 10
72564.88947107877
 20
319801.092598156
 30
0.0
  0
VERTEX
  5
89D
330
86F
100
AcDbEntity
  8
001_AR
100
AcDbVertex
100
AcDb2dVertex
 10
72564.00715365188
 20
319800.5927006407
 30
0.0
  0
VERTEX
  5
89E
330
86F
100
AcDbEntity
  8
001_AR
100
AcDbVertex
100
AcDb2dVertex
 10
72563.125671374
 20
319800.0909679688
 30
0.0
  0
VERTEX
  5
89F
330
86F
100
AcDbEntity
  8
001_AR
100
AcDbVertex
100
AcDb2dVertex
 10
72562.24505071673
 20
319799.5873618574
 30
0.0
  0
VERTEX
  5
8A0
330
86F
100
AcDbEntity
  8
001_AR
100
AcDbVertex
100
AcDb2dVertex
 10
72561.3653184025
 20
319799.081844148
 30
0.0
  0
VERTEX
  5
8A1
330
86F
100
AcDbEntity
  8
001_AR
100
AcDbVertex
100
AcDb2dVertex
 10
72560.48650140931
 20
319798.5743768113
 30
0.0
  0
VERTEX
  5
8A2
330
86F
100
AcDbEntity
  8
001_AR
100
AcDbVertex
100
AcDb2dVertex
 10
72559.60862697557
 20
319798.064921951
 30
0.0
  0
VERTEX
  5
8A3
330
86F
100
AcDbEntity
  8
001_AR
100
AcDbVertex
100
AcDb2dVertex
 10
72558.73172260534
 20
319797.5534418082
 30
0.0
  0
VERTEX
  5
8A4
330
86F
100
AcDbEntity
  8
001_AR
100
AcDbVertex
100
AcDb2dVertex
 10
72557.85581607265
 20
319797.0398987656
 30
0.0
  0
VERTEX
  5
8A5
330
86F
100
AcDbEntity
  8
001_AR
100
AcDbVertex
100
AcDb2dVertex
 10
72556.98093542662
 20
319796.5242553521
 30
0.0
  0
VERTEX
  5
8A6
330
86F
100
AcDbEntity
  8
001_AR
100
AcDbVertex
100
AcDb2dVertex
 10
72556.10710899622
 20
319796.0064742469
 30
0.0
  0
VERTEX
  5
8A7
330
86F
100
AcDbEntity
  8
001_AR
100
AcDbVertex
100
AcDb2dVertex
 10
72555.23436539489
 20
319795.4865182847
 30
0.0
  0
VERTEX
  5
8A8
330
86F
100
AcDbEntity
  8
001_AR
100
AcDbVertex
100
AcDb2dVertex
 10
72554.36273352533
 20
319794.9643504593
 30
0.0
  0
VERTEX
  5
8A9
330
86F
100
AcDbEntity
  8
001_AR
100
AcDbVertex
100
AcDb2dVertex
 10
72553.49224258409
 20
319794.4399339293
 30
0.0
  0
VERTEX
  5
8AA
330
86F
100
AcDbEntity
  8
001_AR
100
AcDbVertex
100
AcDb2dVertex
 10
72552.6229220662
 20
319793.9132320217
 30
0.0
  0
VERTEX
  5
8AB
330
86F
100
AcDbEntity
  8
001_AR
100
AcDbVertex
100
AcDb2dVertex
 10
72551.7548017699
 20
319793.3842082376
 30
0.0
  0
VERTEX
  5
8AC
330
86F
100
AcDbEntity
  8
001_AR
100
AcDbVertex
100
AcDb2dVertex
 10
72550.88791180067
 20
319792.8528262565
 30
0.0
  0
VERTEX
  5
8AD
330
86F
100
AcDbEntity
  8
001_AR
100
AcDbVertex
100
AcDb2dVertex
 10
72550.02228257637
 20
319792.3190499415
 30
0.0
  0
VERTEX
  5
8AE
330
86F
100
AcDbEntity
  8
001_AR
100
AcDbVertex
100
AcDb2dVertex
 10
72549.15794483137
 20
319791.7828433437
 30
0.0
  0
VERTEX
  5
8AF
330
86F
100
AcDbEntity
  8
001_AR
100
AcDbVertex
100
AcDb2dVertex
 10
72548.29492962096
 20
319791.2441707084
 30
0.0
  0
VERTEX
  5
8B0
330
86F
100
AcDbEntity
  8
001_AR
100
AcDbVertex
100
AcDb2dVertex
 10
72547.43326832541
 20
319790.7029964788
 30
0.0
  0
VERTEX
  5
8B1
330
86F
100
AcDbEntity
  8
001_AR
100
AcDbVertex
100
AcDb2dVertex
 10
72546.57299265498
 20
319790.1592853022
 30
0.0
  0
VERTEX
  5
8B2
330
86F
100
AcDbEntity
  8
001_AR
100
AcDbVertex
100
AcDb2dVertex
 10
72545.71413465342
 20
319789.6130020348
 30
0.0
  0
VERTEX
  5
8B3
330
86F
100
AcDbEntity
  8
001_AR
100
AcDbVertex
100
AcDb2dVertex
 10
72544.85672670262
 20
319789.0641117473
 30
0.0
  0
VERTEX
  5
8B4
330
86F
100
AcDbEntity
  8
001_AR
100
AcDbVertex
100
AcDb2dVertex
 10
72544.00080152681
 20
319788.5125797299
 30
0.0
  0
VERTEX
  5
8B5
330
86F
100
AcDbEntity
  8
001_AR
100
AcDbVertex
100
AcDb2dVertex
 10
72543.14639219598
 20
319787.9583714982
 30
0.0
  0
VERTEX
  5
8B6
330
86F
100
AcDbEntity
  8
001_AR
100
AcDbVertex
100
AcDb2dVertex
 10
72542.29353213076
 20
319787.4014527985
 30
0.0
  0
VERTEX
  5
8B7
330
86F
100
AcDbEntity
  8
001_AR
100
AcDbVertex
100
AcDb2dVertex
 10
72541.442255106
 20
319786.8417896135
 30
0.0
  0
VERTEX
  5
8B8
330
86F
100
AcDbEntity
  8
001_AR
100
AcDbVertex
100
AcDb2dVertex
 10
72540.59259525458
 20
319786.2793481681
 30
0.0
  0
VERTEX
  5
8B9
330
86F
100
AcDbEntity
  8
001_AR
100
AcDbVertex
100
AcDb2dVertex
 10
72539.74458707158
 20
319785.7140949347
 30
0.0
  0
VERTEX
  5
8BA
330
86F
100
AcDbEntity
  8
001_AR
100
AcDbVertex
100
AcDb2dVertex
 10
72538.89826541761
 20
319785.1459966399
 30
0.0
  0
VERTEX
  5
8BB
330
86F
100
AcDbEntity
  8
001_AR
100
AcDbVertex
100
AcDb2dVertex
 10
72538.05366552314
 20
319784.5750202699
 30
0.0
  0
VERTEX
  5
8BC
330
86F
100
AcDbEntity
  8
001_AR
100
AcDbVertex
100
AcDb2dVertex
 10
72537.21082299158
 20
319784.0011330764
 30
0.0
  0
VERTEX
  5
8BD
330
86F
100
AcDbEntity
  8
001_AR
100
AcDbVertex
100
AcDb2dVertex
 10
72536.36977380306
 20
319783.4243025828
 30
0.0
  0
VERTEX
  5
8BE
330
86F
100
AcDbEntity
  8
001_AR
100
AcDbVertex
100
AcDb2dVertex
 10
72535.53055431853
 20
319782.8444965909
 30
0.0
  0
VERTEX
  5
8BF
330
86F
100
AcDbEntity
  8
001_AR
100
AcDbVertex
100
AcDb2dVertex
 10
72534.69320128218
 20
319782.2616831863
 30
0.0
  0
VERTEX
  5
8C0
330
86F
100
AcDbEntity
  8
001_AR
100
AcDbVertex
100
AcDb2dVertex
 10
72533.85775182544
 20
319781.6758307454
 30
0.0
  0
VERTEX
  5
8C1
330
86F
100
AcDbEntity
  8
001_AR
100
AcDbVertex
100
AcDb2dVertex
 10
72533.02424347059
 20
319781.0869079416
 30
0.0
  0
VERTEX
  5
8C2
330
86F
100
AcDbEntity
  8
001_AR
100
AcDbVertex
100
AcDb2dVertex
 10
72532.19271413311
 20
319780.4948837517
 30
0.0
  0
VERTEX
  5
8C3
330
86F
100
AcDbEntity
  8
001_AR
100
AcDbVertex
100
AcDb2dVertex
 10
72531.36320212566
 20
319779.8997274626
 30
0.0
  0
VERTEX
  5
8C4
330
86F
100
AcDbEntity
  8
001_AR
100
AcDbVertex
100
AcDb2dVertex
 10
72531.14861560287
 20
319779.7445637404
 30
0.0
  0
VERTEX
  5
8C5
330
86F
100
AcDbEntity
  8
001_AR
100
AcDbVertex
100
AcDb2dVertex
 10
72530.53574616081
 20
319779.3014086781
 30
0.0
  0
VERTEX
  5
8C6
330
86F
100
AcDbEntity
  8
001_AR
100
AcDbVertex
100
AcDb2dVertex
 10
72529.71038535377
 20
319778.6998973252
 30
0.0
  0
VERTEX
  5
8C7
330
86F
100
AcDbEntity
  8
001_AR
100
AcDbVertex
100
AcDb2dVertex
 10
72528.88715922602
 20
319778.0951636616
 30
0.0
  0
VERTEX
  5
8C8
330
86F
100
AcDbEntity
  8
001_AR
100
AcDbVertex
100
AcDb2dVertex
 10
72528.06924191494
 20
319777.4894991504
 30
0.0
 42
0.0251850217766481
  0
VERTEX
  5
8C9
330
86F
100
AcDbEntity
  8
001_AR
100
AcDbVertex
100
AcDb2dVertex
 10
72507.56496241058
 20
319760.5781865635
 30
0.0
 42
0.1131302664396014
  0
SEQEND
  5
8CA
330
86F
100
AcDbEntity
  8
001_AR
  0
POLYLINE
  5
8CB
330
1F
100
AcDbEntity
  8
001_AR
100
AcDb2dPolyline
 66
     1
 10
0.0
 20
0.0
 30
0.0
  0
VERTEX
  5
8CC
330
8CB
100
AcDbEntity
  8
001_AR
100
AcDbVertex
100
AcDb2dVertex
 10
72507.56496241057
 20
319760.5781865635
 30
0.0
  0
VERTEX
  5
8CD
330
8CB
100
AcDbEntity
  8
001_AR
100
AcDbVertex
100
AcDb2dVertex
 10
72480.9230963411
 20
319737.8799273277
 30
0.0
 42
0.0019315808986682
  0
VERTEX
  5
8CE
330
8CB
100
AcDbEntity
  8
001_AR
100
AcDbVertex
100
AcDb2dVertex
 10
72479.59833408128
 20
319736.2935476633
 30
0.0
 42
0.0028037603890542
  0
VERTEX
  5
8CF
330
8CB
100
AcDbEntity
  8
001_AR
100
AcDbVertex
100
AcDb2dVertex
 10
72477.69729492897
 20
319733.9727611283
 30
0.0
 42
0.0483673179537708
  0
VERTEX
  5
8D0
330
8CB
100
AcDbEntity
  8
001_AR
100
AcDbVertex
100
AcDb2dVertex
 10
72449.22760644232
 20
319690.8988103159
 30
0.0
 42
0.0001152104875834
  0
SEQEND
  5
8D1
330
8CB
100
AcDbEntity
  8
001_AR
  0
POLYLINE
  5
8D2
330
1F
100
AcDbEntity
  8
001_AR
100
AcDb2dPolyline
 66
     1
 10
0.0
 20
0.0
 30
0.0
  0
VERTEX
  5
8D3
330
8D2
100
AcDbEntity
  8
001_AR
100
AcDbVertex
100
AcDb2dVertex
 10
72491.26035702698
 20
319726.952902174
 30
0.0
 42
0.0121915795775127
  0
VERTEX
  5
8D4
330
8D2
100
AcDbEntity
  8
001_AR
100
AcDbVertex
100
AcDb2dVertex
 10
72482.41015756299
 20
319715.5521843708
 30
0.0
 42
0.0335643795584126
  0
VERTEX
  5
8D5
330
8D2
100
AcDbEntity
  8
001_AR
100
AcDbVertex
100
AcDb2dVertex
 10
72464.17637790139
 20
319687.0187670754
 30
0.0
  0
SEQEND
  5
8D6
330
8D2
100
AcDbEntity
  8
001_AR
  0
POLYLINE
  5
8D7
330
1F
100
AcDbEntity
  8
001_AR
100
AcDb2dPolyline
 66
     1
 10
0.0
 20
0.0
 30
0.0
1001
ACHSE_01_1_vzd
1000
Long_Axes
1001
LONG_AXIS
1000
ACHSE_01_1
  0
VERTEX
  5
8D8
330
8D7
100
AcDbEntity
  8
001_AR
100
AcDbVertex
100
AcDb2dVertex
 10
72445.90002076717
 20
319646.6681517436
 30
0.0
  0
VERTEX
  5
8D9
330
8D7
100
AcDbEntity
  8
001_AR
100
AcDbVertex
100
AcDb2dVertex
 10
72445.60210295857
 20
319645.8942531667
 30
0.0
  0
VERTEX
  5
8DA
330
8D7
100
AcDbEntity
  8
001_AR
100
AcDbVertex
100
AcDb2dVertex
 10
72445.24854494695
 20
319644.9714237563
 30
0.0
  0
VERTEX
  5
8DB
330
8D7
100
AcDbEntity
  8
001_AR
100
AcDbVertex
100
AcDb2dVertex
 10
72444.89624895399
 20
319644.0476368381
 30
0.0
  0
VERTEX
  5
8DC
330
8D7
100
AcDbEntity
  8
001_AR
100
AcDbVertex
100
AcDb2dVertex
 10
72444.54516237159
 20
319643.1229148852
 30
0.0
  0
VERTEX
  5
8DD
330
8D7
100
AcDbEntity
  8
001_AR
100
AcDbVertex
100
AcDb2dVertex
 10
72444.19523242386
 20
319642.1972801599
 30
0.0
  0
VERTEX
  5
8DE
330
8D7
100
AcDbEntity
  8
001_AR
100
AcDbVertex
100
AcDb2dVertex
 10
72443.84640617104
 20
319641.2707547225
 30
0.0
  0
VERTEX
  5
8DF
330
8D7
100
AcDbEntity
  8
001_AR
100
AcDbVertex
100
AcDb2dVertex
 10
72443.61730220447
 20
319640.659815733
 30
0.0
  0
VERTEX
  5
8E0
330
8D7
100
AcDbEntity
  8
001_AR
100
AcDbVertex
100
AcDb2dVertex
 10
72443.49863051382
 20
319640.3433604404
 30
0.0
  0
VERTEX
  5
8E1
330
8D7
100
AcDbEntity
  8
001_AR
100
AcDbVertex
100
AcDb2dVertex
 10
72443.24900265854
 20
319639.6751672185
 30
0.0
  0
VERTEX
  5
8E2
330
8D7
100
AcDbEntity
  8
001_AR
100
AcDbVertex
100
AcDb2dVertex
 10
72443.15185219734
 20
319639.4151189975
 30
0.0
  0
VERTEX
  5
8E3
330
8D7
100
AcDbEntity
  8
001_AR
100
AcDbVertex
100
AcDb2dVertex
 10
72442.80601781537
 20
319638.4860519036
 30
0.0
  0
VERTEX
  5
8E4
330
8D7
100
AcDbEntity
  8
001_AR
100
AcDbVertex
100
AcDb2dVertex
 10
72442.46107381421
 20
319637.5561805027
 30
0.0
  0
VERTEX
  5
8E5
330
8D7
100
AcDbEntity
  8
001_AR
100
AcDbVertex
100
AcDb2dVertex
 10
72442.11696649657
 20
319636.6255259833
 30
0.0
  0
VERTEX
  5
8E6
330
8D7
100
AcDbEntity
  8
001_AR
100
AcDbVertex
100
AcDb2dVertex
 10
72441.77241413075
 20
319635.6907781893
 30
0.0
  0
VERTEX
  5
8E7
330
8D7
100
AcDbEntity
  8
001_AR
100
AcDbVertex
100
AcDb2dVertex
 10
72441.42990040619
 20
319634.7588334405
 30
0.0
  0
VERTEX
  5
8E8
330
8D7
100
AcDbEntity
  8
001_AR
100
AcDbVertex
100
AcDb2dVertex
 10
72441.08805844557
 20
319633.8261618825
 30
0.0
  0
VERTEX
  5
8E9
330
8D7
100
AcDbEntity
  8
001_AR
100
AcDbVertex
100
AcDb2dVertex
 10
72440.74683651087
 20
319632.8927908282
 30
0.0
  0
VERTEX
  5
8EA
330
8D7
100
AcDbEntity
  8
001_AR
100
AcDbVertex
100
AcDb2dVertex
 10
72440.40618028139
 20
319631.9587408119
 30
0.0
  0
VERTEX
  5
8EB
330
8D7
100
AcDbEntity
  8
001_AR
100
AcDbVertex
100
AcDb2dVertex
 10
72440.0660353157
 20
319631.0240322683
 30
0.0
  0
VERTEX
  5
8EC
330
8D7
100
AcDbEntity
  8
001_AR
100
AcDbVertex
100
AcDb2dVertex
 10
72439.72634705547
 20
319630.0886855427
 30
0.0
  0
VERTEX
  5
8ED
330
8D7
100
AcDbEntity
  8
001_AR
100
AcDbVertex
100
AcDb2dVertex
 10
72439.38706082897
 20
319629.1527208992
 30
0.0
  0
VERTEX
  5
8EE
330
8D7
100
AcDbEntity
  8
001_AR
100
AcDbVertex
100
AcDb2dVertex
 10
72439.04812185462
 20
319628.2161585313
 30
0.0
  0
VERTEX
  5
8EF
330
8D7
100
AcDbEntity
  8
001_AR
100
AcDbVertex
100
AcDb2dVertex
 10
72438.70947524523
 20
319627.2790185722
 30
0.0
  0
VERTEX
  5
8F0
330
8D7
100
AcDbEntity
  8
001_AR
100
AcDbVertex
100
AcDb2dVertex
 10
72438.37106601048
 20
319626.3413211022
 30
0.0
  0
VERTEX
  5
8F1
330
8D7
100
AcDbEntity
  8
001_AR
100
AcDbVertex
100
AcDb2dVertex
 10
72438.0328390616
 20
319625.4030861608
 30
0.0
  0
VERTEX
  5
8F2
330
8D7
100
AcDbEntity
  8
001_AR
100
AcDbVertex
100
AcDb2dVertex
 10
72437.69473921414
 20
319624.4643337545
 30
0.0
  0
VERTEX
  5
8F3
330
8D7
100
AcDbEntity
  8
001_AR
100
AcDbVertex
100
AcDb2dVertex
 10
72437.44931768537
 20
319623.7824178848
 30
0.0
 42
-0.0642059444389451
  0
VERTEX
  5
8F4
330
8D7
100
AcDbEntity
  8
001_AR
100
AcDbVertex
100
AcDb2dVertex
 10
72384.6498490058
 20
319520.3613901199
 30
0.0
 42
-0.0941753685797841
  0
VERTEX
  5
8F5
330
8D7
100
AcDbEntity
  8
001_AR
100
AcDbVertex
100
AcDb2dVertex
 10
72296.22984389727
 20
319432.4123113942
 30
0.0
  0
VERTEX
  5
8F6
330
8D7
100
AcDbEntity
  8
001_AR
100
AcDbVertex
100
AcDb2dVertex
 10
72295.38993672941
 20
319431.8457671301
 30
0.0
  0
VERTEX
  5
8F7
330
8D7
100
AcDbEntity
  8
001_AR
100
AcDbVertex
100
AcDb2dVertex
 10
72294.54597402882
 20
319431.2801484444
 30
0.0
  0
VERTEX
  5
8F8
330
8D7
100
AcDbEntity
  8
001_AR
100
AcDbVertex
100
AcDb2dVertex
 10
72293.70054064413
 20
319430.7171294893
 30
0.0
  0
VERTEX
  5
8F9
330
8D7
100
AcDbEntity
  8
001_AR
100
AcDbVertex
100
AcDb2dVertex
 10
72292.85367556926
 20
319430.1566671726
 30
0.0
  0
VERTEX
  5
8FA
330
8D7
100
AcDbEntity
  8
001_AR
100
AcDbVertex
100
AcDb2dVertex
 10
72292.00541738285
 20
319429.5987181414
 30
0.0
  0
VERTEX
  5
8FB
330
8D7
100
AcDbEntity
  8
001_AR
100
AcDbVertex
100
AcDb2dVertex
 10
72291.15580425435
 20
319429.0432387893
 30
0.0
  0
VERTEX
  5
8FC
330
8D7
100
AcDbEntity
  8
001_AR
100
AcDbVertex
100
AcDb2dVertex
 10
72290.3048739509
 20
319428.4901852646
 30
0.0
  0
VERTEX
  5
8FD
330
8D7
100
AcDbEntity
  8
001_AR
100
AcDbVertex
100
AcDb2dVertex
 10
72289.45266384391
 20
319427.9395134769
 30
0.0
  0
VERTEX
  5
8FE
330
8D7
100
AcDbEntity
  8
001_AR
100
AcDbVertex
100
AcDb2dVertex
 10
72288.59921091602
 20
319427.3911791056
 30
0.0
  0
VERTEX
  5
8FF
330
8D7
100
AcDbEntity
  8
001_AR
100
AcDbVertex
100
AcDb2dVertex
 10
72287.74455176785
 20
319426.8451376057
 30
0.0
  0
VERTEX
  5
900
330
8D7
100
AcDbEntity
  8
001_AR
100
AcDbVertex
100
AcDb2dVertex
 10
72286.8887226249
 20
319426.3013442161
 30
0.0
  0
VERTEX
  5
901
330
8D7
100
AcDbEntity
  8
001_AR
100
AcDbVertex
100
AcDb2dVertex
 10
72286.0317593442
 20
319425.7597539655
 30
0.0
  0
VERTEX
  5
902
330
8D7
100
AcDbEntity
  8
001_AR
100
AcDbVertex
100
AcDb2dVertex
 10
72285.17369742183
 20
319425.2203216806
 30
0.0
  0
VERTEX
  5
903
330
8D7
100
AcDbEntity
  8
001_AR
100
AcDbVertex
100
AcDb2dVertex
 10
72284.31457199994
 20
319424.6830019917
 30
0.0
  0
VERTEX
  5
904
330
8D7
100
AcDbEntity
  8
001_AR
100
AcDbVertex
100
AcDb2dVertex
 10
72283.45441787372
 20
319424.1477493402
 30
0.0
  0
VERTEX
  5
905
330
8D7
100
AcDbEntity
  8
001_AR
100
AcDbVertex
100
AcDb2dVertex
 10
72282.59326949838
 20
319423.6145179846
 30
0.0
  0
VERTEX
  5
906
330
8D7
100
AcDbEntity
  8
001_AR
100
AcDbVertex
100
AcDb2dVertex
 10
72281.7311609969
 20
319423.0832620076
 30
0.0
  0
VERTEX
  5
907
330
8D7
100
AcDbEntity
  8
001_AR
100
AcDbVertex
100
AcDb2dVertex
 10
72280.86812616739
 20
319422.5539353222
 30
0.0
  0
VERTEX
  5
908
330
8D7
100
AcDbEntity
  8
001_AR
100
AcDbVertex
100
AcDb2dVertex
 10
72280.00419848964
 20
319422.026491678
 30
0.0
  0
VERTEX
  5
909
330
8D7
100
AcDbEntity
  8
001_AR
100
AcDbVertex
100
AcDb2dVertex
 10
72279.13941113332
 20
319421.5008846675
 30
0.0
  0
VERTEX
  5
90A
330
8D7
100
AcDbEntity
  8
001_AR
100
AcDbVertex
100
AcDb2dVertex
 10
72278.27379696532
 20
319420.9770677325
 30
0.0
  0
VERTEX
  5
90B
330
8D7
100
AcDbEntity
  8
001_AR
100
AcDbVertex
100
AcDb2dVertex
 10
72277.40738855697
 20
319420.4549941699
 30
0.0
  0
VERTEX
  5
90C
330
8D7
100
AcDbEntity
  8
001_AR
100
AcDbVertex
100
AcDb2dVertex
 10
72276.5402181918
 20
319419.9346171379
 30
0.0
  0
VERTEX
  5
90D
330
8D7
100
AcDbEntity
  8
001_AR
100
AcDbVertex
100
AcDb2dVertex
 10
72275.67231787308
 20
319419.4158896616
 30
0.0
  0
VERTEX
  5
90E
330
8D7
100
AcDbEntity
  8
001_AR
100
AcDbVertex
100
AcDb2dVertex
 10
72274.80371933106
 20
319418.898764639
 30
0.0
  0
VERTEX
  5
90F
330
8D7
100
AcDbEntity
  8
001_AR
100
AcDbVertex
100
AcDb2dVertex
 10
72274.72847529909
 20
319418.854136658
 30
0.0
  0
VERTEX
  5
910
330
8D7
100
AcDbEntity
  8
001_AR
100
AcDbVertex
100
AcDb2dVertex
 10
72215.78805068886
 20
319383.6989003367
 30
0.0
 42
-0.006636416941629
  0
VERTEX
  5
911
330
8D7
100
AcDbEntity
  8
001_AR
100
AcDbVertex
100
AcDb2dVertex
 10
72204.20826198789
 20
319376.9988397576
 30
0.0
  0
VERTEX
  5
912
330
8D7
100
AcDbEntity
  8
001_AR
100
AcDbVertex
100
AcDb2dVertex
 10
72189.09379816836
 20
319368.5193606828
 30
0.0
  0
SEQEND
  5
913
330
8D7
100
AcDbEntity
  8
001_AR
  0
POLYLINE
  5
914
330
1F
100
AcDbEntity
  8
001_AR
100
AcDb2dPolyline
 66
     1
 10
0.0
 20
0.0
 30
0.0
1001
ACHSE_01_1_vzd
1000
Long_Axes
1001
LONG_AXIS
1000
ACHSE_01_1
  0
VERTEX
  5
915
330
914
100
AcDbEntity
  8
001_AR
100
AcDbVertex
100
AcDb2dVertex
 10
72432.18957496815
 20
319642.9306430026
 30
0.0
  0
VERTEX
  5
916
330
914
100
AcDbEntity
  8
001_AR
100
AcDbVertex
100
AcDb2dVertex
 10
72432.02622329743
 20
319642.4918067563
 30
0.0
  0
VERTEX
  5
917
330
914
100
AcDbEntity
  8
001_AR
100
AcDbVertex
100
AcDb2dVertex
 10
72431.67690093263
 20
319641.5501325263
 30
0.0
  0
VERTEX
  5
918
330
914
100
AcDbEntity
  8
001_AR
100
AcDbVertex
100
AcDb2dVertex
 10
72431.32866381362
 20
319640.6083087638
 30
0.0
  0
VERTEX
  5
919
330
914
100
AcDbEntity
  8
001_AR
100
AcDbVertex
100
AcDb2dVertex
 10
72430.9821110025
 20
319639.6681338939
 30
0.0
  0
VERTEX
  5
91A
330
914
100
AcDbEntity
  8
001_AR
100
AcDbVertex
100
AcDb2dVertex
 10
72430.82096076783
 20
319639.2296676203
 30
0.0
  0
VERTEX
  5
91B
330
914
100
AcDbEntity
  8
001_AR
100
AcDbVertex
100
AcDb2dVertex
 10
72430.63583439879
 20
319638.7259657837
 30
0.0
  0
VERTEX
  5
91C
330
914
100
AcDbEntity
  8
001_AR
100
AcDbVertex
100
AcDb2dVertex
 10
72430.29047582966
 20
319637.7837128491
 30
0.0
  0
VERTEX
  5
91D
330
914
100
AcDbEntity
  8
001_AR
100
AcDbVertex
100
AcDb2dVertex
 10
72429.94597940084
 20
319636.8413963655
 30
0.0
  0
VERTEX
  5
91E
330
914
100
AcDbEntity
  8
001_AR
100
AcDbVertex
100
AcDb2dVertex
 10
72429.60228920603
 20
319635.8990374544
 30
0.0
  0
VERTEX
  5
91F
330
914
100
AcDbEntity
  8
001_AR
100
AcDbVertex
100
AcDb2dVertex
 10
72429.25934933072
 20
319634.9566570943
 30
0.0
  0
VERTEX
  5
920
330
914
100
AcDbEntity
  8
001_AR
100
AcDbVertex
100
AcDb2dVertex
 10
72428.91710385629
 20
319634.0142761302
 30
0.0
  0
VERTEX
  5
921
330
914
100
AcDbEntity
  8
001_AR
100
AcDbVertex
100
AcDb2dVertex
 10
72428.57549686348
 20
319633.0719152832
 30
0.0
  0
VERTEX
  5
922
330
914
100
AcDbEntity
  8
001_AR
100
AcDbVertex
100
AcDb2dVertex
 10
72428.23447243645
 20
319632.1295951618
 30
0.0
  0
VERTEX
  5
923
330
914
100
AcDbEntity
  8
001_AR
100
AcDbVertex
100
AcDb2dVertex
 10
72427.89397466619
 20
319631.1873362697
 30
0.0
  0
VERTEX
  5
924
330
914
100
AcDbEntity
  8
001_AR
100
AcDbVertex
100
AcDb2dVertex
 10
72427.55394765458
 20
319630.2451590182
 30
0.0
  0
VERTEX
  5
925
330
914
100
AcDbEntity
  8
001_AR
100
AcDbVertex
100
AcDb2dVertex
 10
72427.21433551772
 20
319629.303083734
 30
0.0
  0
VERTEX
  5
926
330
914
100
AcDbEntity
  8
001_AR
100
AcDbVertex
100
AcDb2dVertex
 10
72426.8750823899
 20
319628.3611306707
 30
0.0
  0
VERTEX
  5
927
330
914
100
AcDbEntity
  8
001_AR
100
AcDbVertex
100
AcDb2dVertex
 10
72426.53613242683
 20
319627.4193200174
 30
0.0
  0
VERTEX
  5
928
330
914
100
AcDbEntity
  8
001_AR
100
AcDbVertex
100
AcDb2dVertex
 10
72426.19742980969
 20
319626.4776719103
 30
0.0
  0
VERTEX
  5
929
330
914
100
AcDbEntity
  8
001_AR
100
AcDbVertex
100
AcDb2dVertex
 10
72425.85891874834
 20
319625.5362064407
 30
0.0
  0
VERTEX
  5
92A
330
914
100
AcDbEntity
  8
001_AR
100
AcDbVertex
100
AcDb2dVertex
 10
72425.52054348516
 20
319624.5949436665
 30
0.0
  0
VERTEX
  5
92B
330
914
100
AcDbEntity
  8
001_AR
100
AcDbVertex
100
AcDb2dVertex
 10
72425.1808501214
 20
319623.6500123912
 30
0.0
  0
VERTEX
  5
92C
330
914
100
AcDbEntity
  8
001_AR
100
AcDbVertex
100
AcDb2dVertex
 10
72424.84118021898
 20
319622.7053105745
 30
0.0
  0
VERTEX
  5
92D
330
914
100
AcDbEntity
  8
001_AR
100
AcDbVertex
100
AcDb2dVertex
 10
72424.50148066996
 20
319621.7608545906
 30
0.0
  0
VERTEX
  5
92E
330
914
100
AcDbEntity
  8
001_AR
100
AcDbVertex
100
AcDb2dVertex
 10
72424.16169927601
 20
319620.8166632353
 30
0.0
  0
VERTEX
  5
92F
330
914
100
AcDbEntity
  8
001_AR
100
AcDbVertex
100
AcDb2dVertex
 10
72423.82178388291
 20
319619.8727553185
 30
0.0
  0
VERTEX
  5
930
330
914
100
AcDbEntity
  8
001_AR
100
AcDbVertex
100
AcDb2dVertex
 10
72423.48168238332
 20
319618.9291496719
 30
0.0
  0
VERTEX
  5
931
330
914
100
AcDbEntity
  8
001_AR
100
AcDbVertex
100
AcDb2dVertex
 10
72423.14134272015
 20
319617.9858651578
 30
0.0
  0
VERTEX
  5
932
330
914
100
AcDbEntity
  8
001_AR
100
AcDbVertex
100
AcDb2dVertex
 10
72422.80071288965
 20
319617.0429206786
 30
0.0
  0
VERTEX
  5
933
330
914
100
AcDbEntity
  8
001_AR
100
AcDbVertex
100
AcDb2dVertex
 10
72422.45974094447
 20
319616.1003351845
 30
0.0
  0
VERTEX
  5
934
330
914
100
AcDbEntity
  8
001_AR
100
AcDbVertex
100
AcDb2dVertex
 10
72422.11837499693
 20
319615.1581276824
 30
0.0
  0
VERTEX
  5
935
330
914
100
AcDbEntity
  8
001_AR
100
AcDbVertex
100
AcDb2dVertex
 10
72421.77656322213
 20
319614.216317244
 30
0.0
  0
VERTEX
  5
936
330
914
100
AcDbEntity
  8
001_AR
100
AcDbVertex
100
AcDb2dVertex
 10
72421.43425386125
 20
319613.2749230154
 30
0.0
  0
VERTEX
  5
937
330
914
100
AcDbEntity
  8
001_AR
100
AcDbVertex
100
AcDb2dVertex
 10
72421.09139522452
 20
319612.3339642244
 30
0.0
  0
VERTEX
  5
938
330
914
100
AcDbEntity
  8
001_AR
100
AcDbVertex
100
AcDb2dVertex
 10
72420.74793569479
 20
319611.3934601901
 30
0.0
  0
VERTEX
  5
939
330
914
100
AcDbEntity
  8
001_AR
100
AcDbVertex
100
AcDb2dVertex
 10
72420.40382373052
 20
319610.4534303306
 30
0.0
  0
VERTEX
  5
93A
330
914
100
AcDbEntity
  8
001_AR
100
AcDbVertex
100
AcDb2dVertex
 10
72420.05900786931
 20
319609.5138941718
 30
0.0
  0
VERTEX
  5
93B
330
914
100
AcDbEntity
  8
001_AR
100
AcDbVertex
100
AcDb2dVertex
 10
72419.71343673094
 20
319608.5748713559
 30
0.0
  0
VERTEX
  5
93C
330
914
100
AcDbEntity
  8
001_AR
100
AcDbVertex
100
AcDb2dVertex
 10
72419.36705902103
 20
319607.6363816498
 30
0.0
  0
VERTEX
  5
93D
330
914
100
AcDbEntity
  8
001_AR
100
AcDbVertex
100
AcDb2dVertex
 10
72419.02055342016
 20
319606.7004165005
 30
0.0
  0
VERTEX
  5
93E
330
914
100
AcDbEntity
  8
001_AR
100
AcDbVertex
100
AcDb2dVertex
 10
72418.67244963959
 20
319605.763155812
 30
0.0
  0
VERTEX
  5
93F
330
914
100
AcDbEntity
  8
001_AR
100
AcDbVertex
100
AcDb2dVertex
 10
72418.32338628992
 20
319604.8264882377
 30
0.0
  0
VERTEX
  5
940
330
914
100
AcDbEntity
  8
001_AR
100
AcDbVertex
100
AcDb2dVertex
 10
72417.97331247062
 20
319603.8904341194
 30
0.0
  0
VERTEX
  5
941
330
914
100
AcDbEntity
  8
001_AR
100
AcDbVertex
100
AcDb2dVertex
 10
72417.62217738419
 20
319602.9550139654
 30
0.0
  0
VERTEX
  5
942
330
914
100
AcDbEntity
  8
001_AR
100
AcDbVertex
100
AcDb2dVertex
 10
72417.26993033965
 20
319602.0202484592
 30
0.0
  0
VERTEX
  5
943
330
914
100
AcDbEntity
  8
001_AR
100
AcDbVertex
100
AcDb2dVertex
 10
72416.9165207562
 20
319601.0861584661
 30
0.0
  0
VERTEX
  5
944
330
914
100
AcDbEntity
  8
001_AR
100
AcDbVertex
100
AcDb2dVertex
 10
72416.56189816697
 20
319600.1527650431
 30
0.0
  0
VERTEX
  5
945
330
914
100
AcDbEntity
  8
001_AR
100
AcDbVertex
100
AcDb2dVertex
 10
72416.20601222273
 20
319599.2200894461
 30
0.0
  0
VERTEX
  5
946
330
914
100
AcDbEntity
  8
001_AR
100
AcDbVertex
100
AcDb2dVertex
 10
72415.84881269569
 20
319598.2881531388
 30
0.0
  0
VERTEX
  5
947
330
914
100
AcDbEntity
  8
001_AR
100
AcDbVertex
100
AcDb2dVertex
 10
72415.49024948329
 20
319597.3569777996
 30
0.0
  0
VERTEX
  5
948
330
914
100
AcDbEntity
  8
001_AR
100
AcDbVertex
100
AcDb2dVertex
 10
72415.13027261225
 20
319596.4265853311
 30
0.0
  0
VERTEX
  5
949
330
914
100
AcDbEntity
  8
001_AR
100
AcDbVertex
100
AcDb2dVertex
 10
72414.76883224245
 20
319595.496997867
 30
0.0
  0
VERTEX
  5
94A
330
914
100
AcDbEntity
  8
001_AR
100
AcDbVertex
100
AcDb2dVertex
 10
72414.40587867089
 20
319594.5682377808
 30
0.0
  0
VERTEX
  5
94B
330
914
100
AcDbEntity
  8
001_AR
100
AcDbVertex
100
AcDb2dVertex
 10
72414.04136233593
 20
319593.6403276932
 30
0.0
  0
VERTEX
  5
94C
330
914
100
AcDbEntity
  8
001_AR
100
AcDbVertex
100
AcDb2dVertex
 10
72413.6752338215
 20
319592.7132904809
 30
0.0
  0
VERTEX
  5
94D
330
914
100
AcDbEntity
  8
001_AR
100
AcDbVertex
100
AcDb2dVertex
 10
72413.30744386109
 20
319591.7871492831
 30
0.0
  0
VERTEX
  5
94E
330
914
100
AcDbEntity
  8
001_AR
100
AcDbVertex
100
AcDb2dVertex
 10
72412.93794334231
 20
319590.8619275109
 30
0.0
  0
VERTEX
  5
94F
330
914
100
AcDbEntity
  8
001_AR
100
AcDbVertex
100
AcDb2dVertex
 10
72412.56668331116
 20
319589.9376488537
 30
0.0
  0
VERTEX
  5
950
330
914
100
AcDbEntity
  8
001_AR
100
AcDbVertex
100
AcDb2dVertex
 10
72412.19361497647
 20
319589.0143372878
 30
0.0
  0
VERTEX
  5
951
330
914
100
AcDbEntity
  8
001_AR
100
AcDbVertex
100
AcDb2dVertex
 10
72411.81868971453
 20
319588.092017084
 30
0.0
  0
VERTEX
  5
952
330
914
100
AcDbEntity
  8
001_AR
100
AcDbVertex
100
AcDb2dVertex
 10
72411.44185907359
 20
319587.1707128148
 30
0.0
  0
VERTEX
  5
953
330
914
100
AcDbEntity
  8
001_AR
100
AcDbVertex
100
AcDb2dVertex
 10
72411.06307477869
 20
319586.2504493625
 30
0.0
  0
VERTEX
  5
954
330
914
100
AcDbEntity
  8
001_AR
100
AcDbVertex
100
AcDb2dVertex
 10
72410.68228873629
 20
319585.3312519265
 30
0.0
  0
VERTEX
  5
955
330
914
100
AcDbEntity
  8
001_AR
100
AcDbVertex
100
AcDb2dVertex
 10
72410.29945303936
 20
319584.4131460308
 30
0.0
  0
VERTEX
  5
956
330
914
100
AcDbEntity
  8
001_AR
100
AcDbVertex
100
AcDb2dVertex
 10
72409.91451997202
 20
319583.4961575315
 30
0.0
  0
VERTEX
  5
957
330
914
100
AcDbEntity
  8
001_AR
100
AcDbVertex
100
AcDb2dVertex
 10
72409.52744201485
 20
319582.5803126244
 30
0.0
  0
VERTEX
  5
958
330
914
100
AcDbEntity
  8
001_AR
100
AcDbVertex
100
AcDb2dVertex
 10
72409.13817184992
 20
319581.6656378515
 30
0.0
  0
VERTEX
  5
959
330
914
100
AcDbEntity
  8
001_AR
100
AcDbVertex
100
AcDb2dVertex
 10
72408.74666236607
 20
319580.7521601093
 30
0.0
  0
VERTEX
  5
95A
330
914
100
AcDbEntity
  8
001_AR
100
AcDbVertex
100
AcDb2dVertex
 10
72408.3528666642
 20
319579.8399066557
 30
0.0
  0
VERTEX
  5
95B
330
914
100
AcDbEntity
  8
001_AR
100
AcDbVertex
100
AcDb2dVertex
 10
72407.95673806261
 20
319578.9289051166
 30
0.0
  0
VERTEX
  5
95C
330
914
100
AcDbEntity
  8
001_AR
100
AcDbVertex
100
AcDb2dVertex
 10
72407.55823010273
 20
319578.0191834937
 30
0.0
  0
VERTEX
  5
95D
330
914
100
AcDbEntity
  8
001_AR
100
AcDbVertex
100
AcDb2dVertex
 10
72407.15729655454
 20
319577.1107701713
 30
0.0
  0
VERTEX
  5
95E
330
914
100
AcDbEntity
  8
001_AR
100
AcDbVertex
100
AcDb2dVertex
 10
72406.75389142238
 20
319576.2036939225
 30
0.0
  0
VERTEX
  5
95F
330
914
100
AcDbEntity
  8
001_AR
100
AcDbVertex
100
AcDb2dVertex
 10
72406.34796895081
 20
319575.2979839177
 30
0.0
  0
VERTEX
  5
960
330
914
100
AcDbEntity
  8
001_AR
100
AcDbVertex
100
AcDb2dVertex
 10
72405.93948363041
 20
319574.3936697298
 30
0.0
  0
VERTEX
  5
961
330
914
100
AcDbEntity
  8
001_AR
100
AcDbVertex
100
AcDb2dVertex
 10
72405.52712549884
 20
319573.4880036578
 30
0.0
 42
-0.1376254284613048
  0
VERTEX
  5
962
330
914
100
AcDbEntity
  8
001_AR
100
AcDbVertex
100
AcDb2dVertex
 10
72291.75117891861
 20
319439.0411571911
 30
0.0
  0
VERTEX
  5
963
330
914
100
AcDbEntity
  8
001_AR
100
AcDbVertex
100
AcDb2dVertex
 10
72290.92619334591
 20
319438.4846780203
 30
0.0
  0
VERTEX
  5
964
330
914
100
AcDbEntity
  8
001_AR
100
AcDbVertex
100
AcDb2dVertex
 10
72290.1019004572
 20
319437.9322419233
 30
0.0
  0
VERTEX
  5
965
330
914
100
AcDbEntity
  8
001_AR
100
AcDbVertex
100
AcDb2dVertex
 10
72289.27580707201
 20
319437.3821025002
 30
0.0
  0
VERTEX
  5
966
330
914
100
AcDbEntity
  8
001_AR
100
AcDbVertex
100
AcDb2dVertex
 10
72288.44794988359
 20
319436.8342197601
 30
0.0
  0
VERTEX
  5
967
330
914
100
AcDbEntity
  8
001_AR
100
AcDbVertex
100
AcDb2dVertex
 10
72287.61836522796
 20
319436.2885534025
 30
0.0
  0
VERTEX
  5
968
330
914
100
AcDbEntity
  8
001_AR
100
AcDbVertex
100
AcDb2dVertex
 10
72286.78708909042
 20
319435.7450628245
 30
0.0
  0
VERTEX
  5
969
330
914
100
AcDbEntity
  8
001_AR
100
AcDbVertex
100
AcDb2dVertex
 10
72285.95415711065
 20
319435.2037071278
 30
0.0
  0
VERTEX
  5
96A
330
914
100
AcDbEntity
  8
001_AR
100
AcDbVertex
100
AcDb2dVertex
 10
72285.11960458916
 20
319434.6644451253
 30
0.0
  0
VERTEX
  5
96B
330
914
100
AcDbEntity
  8
001_AR
100
AcDbVertex
100
AcDb2dVertex
 10
72284.28346649282
 20
319434.1272353478
 30
0.0
  0
VERTEX
  5
96C
330
914
100
AcDbEntity
  8
001_AR
100
AcDbVertex
100
AcDb2dVertex
 10
72283.44577746111
 20
319433.5920360508
 30
0.0
  0
VERTEX
  5
96D
330
914
100
AcDbEntity
  8
001_AR
100
AcDbVertex
100
AcDb2dVertex
 10
72282.60657181229
 20
319433.0588052206
 30
0.0
  0
VERTEX
  5
96E
330
914
100
AcDbEntity
  8
001_AR
100
AcDbVertex
100
AcDb2dVertex
 10
72281.76588354989
 20
319432.5275005815
 30
0.0
  0
VERTEX
  5
96F
330
914
100
AcDbEntity
  8
001_AR
100
AcDbVertex
100
AcDb2dVertex
 10
72280.92374636857
 20
319431.9980796013
 30
0.0
  0
VERTEX
  5
970
330
914
100
AcDbEntity
  8
001_AR
100
AcDbVertex
100
AcDb2dVertex
 10
72280.08019366054
 20
319431.4704994982
 30
0.0
  0
VERTEX
  5
971
330
914
100
AcDbEntity
  8
001_AR
100
AcDbVertex
100
AcDb2dVertex
 10
72279.23525852227
 20
319430.9447172468
 30
0.0
  0
VERTEX
  5
972
330
914
100
AcDbEntity
  8
001_AR
100
AcDbVertex
100
AcDb2dVertex
 10
72278.38897376112
 20
319430.420689584
 30
0.0
  0
VERTEX
  5
973
330
914
100
AcDbEntity
  8
001_AR
100
AcDbVertex
100
AcDb2dVertex
 10
72277.54137190139
 20
319429.8983730156
 30
0.0
  0
VERTEX
  5
974
330
914
100
AcDbEntity
  8
001_AR
100
AcDbVertex
100
AcDb2dVertex
 10
72276.69248519119
 20
319429.3777238213
 30
0.0
  0
VERTEX
  5
975
330
914
100
AcDbEntity
  8
001_AR
100
AcDbVertex
100
AcDb2dVertex
 10
72275.84234560963
 20
319428.8586980619
 30
0.0
  0
VERTEX
  5
976
330
914
100
AcDbEntity
  8
001_AR
100
AcDbVertex
100
AcDb2dVertex
 10
72274.99098487307
 20
319428.3412515841
 30
0.0
  0
VERTEX
  5
977
330
914
100
AcDbEntity
  8
001_AR
100
AcDbVertex
100
AcDb2dVertex
 10
72274.13843444195
 20
319427.8253400264
 30
0.0
  0
VERTEX
  5
978
330
914
100
AcDbEntity
  8
001_AR
100
AcDbVertex
100
AcDb2dVertex
 10
72273.2847255279
 20
319427.3109188252
 30
0.0
  0
VERTEX
  5
979
330
914
100
AcDbEntity
  8
001_AR
100
AcDbVertex
100
AcDb2dVertex
 10
72272.42988910069
 20
319426.7979432201
 30
0.0
  0
VERTEX
  5
97A
330
914
100
AcDbEntity
  8
001_AR
100
AcDbVertex
100
AcDb2dVertex
 10
72271.57395589508
 20
319426.2863682591
 30
0.0
  0
VERTEX
  5
97B
330
914
100
AcDbEntity
  8
001_AR
100
AcDbVertex
100
AcDb2dVertex
 10
72270.71695641834
 20
319425.7761488052
 30
0.0
  0
VERTEX
  5
97C
330
914
100
AcDbEntity
  8
001_AR
100
AcDbVertex
100
AcDb2dVertex
 10
72269.85892095648
 20
319425.2672395406
 30
0.0
  0
VERTEX
  5
97D
330
914
100
AcDbEntity
  8
001_AR
100
AcDbVertex
100
AcDb2dVertex
 10
72268.99987958254
 20
319424.7595949728
 30
0.0
  0
VERTEX
  5
97E
330
914
100
AcDbEntity
  8
001_AR
100
AcDbVertex
100
AcDb2dVertex
 10
72268.13986216281
 20
319424.2531694393
 30
0.0
  0
VERTEX
  5
97F
330
914
100
AcDbEntity
  8
001_AR
100
AcDbVertex
100
AcDb2dVertex
 10
72267.41510665555
 20
319423.8278502724
 30
0.0
 42
-0.009813790297358
  0
VERTEX
  5
980
330
914
100
AcDbEntity
  8
001_AR
100
AcDbVertex
100
AcDb2dVertex
 10
72263.95038818626
 20
319421.9011666277
 30
0.0
  0
VERTEX
  5
981
330
914
100
AcDbEntity
  8
001_AR
100
AcDbVertex
100
AcDb2dVertex
 10
72209.84725907697
 20
319393.1905513585
 30
0.0
 42
0.0058463926242772
  0
VERTEX
  5
982
330
914
100
AcDbEntity
  8
001_AR
100
AcDbVertex
100
AcDb2dVertex
 10
72199.50170802021
 20
319387.5445267404
 30
0.0
  0
VERTEX
  5
983
330
914
100
AcDbEntity
  8
001_AR
100
AcDbVertex
100
AcDb2dVertex
 10
72169.24880311946
 20
319370.572116927
 30
0.0
  0
SEQEND
  5
984
330
914
100
AcDbEntity
  8
001_AR
  0
POLYLINE
  5
985
330
1F
100
AcDbEntity
  8
001_AR
100
AcDb2dPolyline
 66
     1
 10
0.0
 20
0.0
 30
0.0
  0
VERTEX
  5
986
330
985
100
AcDbEntity
  8
001_AR
100
AcDbVertex
100
AcDb2dVertex
 10
72099.22972257958
 20
319331.2572724146
 30
0.0
 42
-0.0026682003197109
  0
VERTEX
  5
987
330
985
100
AcDbEntity
  8
001_AR
100
AcDbVertex
100
AcDb2dVertex
 10
72103.90683148514
 20
319333.9141257616
 30
0.0
  0
VERTEX
  5
988
330
985
100
AcDbEntity
  8
001_AR
100
AcDbVertex
100
AcDb2dVertex
 10
72113.93599693891
 20
319339.5406633358
 30
0.0
  0
VERTEX
  5
989
330
985
100
AcDbEntity
  8
001_AR
100
AcDbVertex
100
AcDb2dVertex
 10
72113.93636646116
 20
319339.5408706442
 30
0.0
  0
VERTEX
  5
98A
330
985
100
AcDbEntity
  8
001_AR
100
AcDbVertex
100
AcDb2dVertex
 10
72127.36116866993
 20
319347.0724199452
 30
0.0
 42
-0.0058463926242772
  0
SEQEND
  5
98B
330
985
100
AcDbEntity
  8
001_AR
  0
POLYLINE
  5
98C
330
1F
100
AcDbEntity
  8
001_AR
100
AcDb2dPolyline
 66
     1
 10
0.0
 20
0.0
 30
0.0
  0
VERTEX
  5
98D
330
98C
100
AcDbEntity
  8
001_AR
100
AcDbVertex
100
AcDb2dVertex
 10
72067.03248579742
 20
319301.2416649284
 30
0.0
  0
VERTEX
  5
98E
330
98C
100
AcDbEntity
  8
001_AR
100
AcDbVertex
100
AcDb2dVertex
 10
72047.65548974877
 20
319290.9989157364
 30
0.0
 42
0.0066667535990249
  0
VERTEX
  5
98F
330
98C
100
AcDbEntity
  8
001_AR
100
AcDbVertex
100
AcDb2dVertex
 10
72036.76777442487
 20
319285.06837941
 30
0.0
  0
VERTEX
  5
990
330
98C
100
AcDbEntity
  8
001_AR
100
AcDbVertex
100
AcDb2dVertex
 10
71986.68477206237
 20
319256.97093741
 30
0.0
  0
VERTEX
  5
991
330
98C
100
AcDbEntity
  8
001_AR
100
AcDbVertex
100
AcDb2dVertex
 10
71986.24770712128
 20
319256.7257368642
 30
0.0
  0
VERTEX
  5
992
330
98C
100
AcDbEntity
  8
001_AR
100
AcDbVertex
100
AcDb2dVertex
 10
71985.81062091761
 20
319256.4805276622
 30
0.0
  0
VERTEX
  5
993
330
98C
100
AcDbEntity
  8
001_AR
100
AcDbVertex
100
AcDb2dVertex
 10
71985.37351205486
 20
319256.2353122935
 30
0.0
  0
VERTEX
  5
994
330
98C
100
AcDbEntity
  8
001_AR
100
AcDbVertex
100
AcDb2dVertex
 10
71984.93637913634
 20
319255.9900932479
 30
0.0
  0
VERTEX
  5
995
330
98C
100
AcDbEntity
  8
001_AR
100
AcDbVertex
100
AcDb2dVertex
 10
71984.49922076534
 20
319255.7448730158
 30
0.0
  0
VERTEX
  5
996
330
98C
100
AcDbEntity
  8
001_AR
100
AcDbVertex
100
AcDb2dVertex
 10
71984.06203554511
 20
319255.4996540878
 30
0.0
  0
VERTEX
  5
997
330
98C
100
AcDbEntity
  8
001_AR
100
AcDbVertex
100
AcDb2dVertex
 10
71983.62482207893
 20
319255.2544389549
 30
0.0
  0
VERTEX
  5
998
330
98C
100
AcDbEntity
  8
001_AR
100
AcDbVertex
100
AcDb2dVertex
 10
71983.18757897015
 20
319255.0092301089
 30
0.0
  0
VERTEX
  5
999
330
98C
100
AcDbEntity
  8
001_AR
100
AcDbVertex
100
AcDb2dVertex
 10
71982.75030482221
 20
319254.764030042
 30
0.0
  0
VERTEX
  5
99A
330
98C
100
AcDbEntity
  8
001_AR
100
AcDbVertex
100
AcDb2dVertex
 10
71982.31299823873
 20
319254.5188412466
 30
0.0
  0
VERTEX
  5
99B
330
98C
100
AcDbEntity
  8
001_AR
100
AcDbVertex
100
AcDb2dVertex
 10
71981.87565782349
 20
319254.273666216
 30
0.0
  0
VERTEX
  5
99C
330
98C
100
AcDbEntity
  8
001_AR
100
AcDbVertex
100
AcDb2dVertex
 10
71981.43828218054
 20
319254.0285074441
 30
0.0
  0
VERTEX
  5
99D
330
98C
100
AcDbEntity
  8
001_AR
100
AcDbVertex
100
AcDb2dVertex
 10
71981.00086991416
 20
319253.7833674253
 30
0.0
  0
VERTEX
  5
99E
330
98C
100
AcDbEntity
  8
001_AR
100
AcDbVertex
100
AcDb2dVertex
 10
71980.56341962899
 20
319253.5382486545
 30
0.0
  0
VERTEX
  5
99F
330
98C
100
AcDbEntity
  8
001_AR
100
AcDbVertex
100
AcDb2dVertex
 10
71980.12592993003
 20
319253.2931536273
 30
0.0
  0
VERTEX
  5
9A0
330
98C
100
AcDbEntity
  8
001_AR
100
AcDbVertex
100
AcDb2dVertex
 10
71979.68839942268
 20
319253.0480848403
 30
0.0
  0
VERTEX
  5
9A1
330
98C
100
AcDbEntity
  8
001_AR
100
AcDbVertex
100
AcDb2dVertex
 10
71979.25082671279
 20
319252.8030447904
 30
0.0
  0
VERTEX
  5
9A2
330
98C
100
AcDbEntity
  8
001_AR
100
AcDbVertex
100
AcDb2dVertex
 10
71978.81321040667
 20
319252.5580359753
 30
0.0
  0
VERTEX
  5
9A3
330
98C
100
AcDbEntity
  8
001_AR
100
AcDbVertex
100
AcDb2dVertex
 10
71978.37554911123
 20
319252.3130608936
 30
0.0
  0
VERTEX
  5
9A4
330
98C
100
AcDbEntity
  8
001_AR
100
AcDbVertex
100
AcDb2dVertex
 10
71977.93784143391
 20
319252.0681220445
 30
0.0
  0
VERTEX
  5
9A5
330
98C
100
AcDbEntity
  8
001_AR
100
AcDbVertex
100
AcDb2dVertex
 10
71977.50008598277
 20
319251.8232219282
 30
0.0
  0
VERTEX
  5
9A6
330
98C
100
AcDbEntity
  8
001_AR
100
AcDbVertex
100
AcDb2dVertex
 10
71977.06228136655
 20
319251.5783630454
 30
0.0
  0
VERTEX
  5
9A7
330
98C
100
AcDbEntity
  8
001_AR
100
AcDbVertex
100
AcDb2dVertex
 10
71976.6244261947
 20
319251.3335478979
 30
0.0
  0
VERTEX
  5
9A8
330
98C
100
AcDbEntity
  8
001_AR
100
AcDbVertex
100
AcDb2dVertex
 10
71976.18651907739
 20
319251.0887789883
 30
0.0
  0
VERTEX
  5
9A9
330
98C
100
AcDbEntity
  8
001_AR
100
AcDbVertex
100
AcDb2dVertex
 10
71975.74855862562
 20
319250.8440588201
 30
0.0
  0
VERTEX
  5
9AA
330
98C
100
AcDbEntity
  8
001_AR
100
AcDbVertex
100
AcDb2dVertex
 10
71975.31054345117
 20
319250.5993898976
 30
0.0
  0
VERTEX
  5
9AB
330
98C
100
AcDbEntity
  8
001_AR
100
AcDbVertex
100
AcDb2dVertex
 10
71974.87247216677
 20
319250.3547747262
 30
0.0
  0
VERTEX
  5
9AC
330
98C
100
AcDbEntity
  8
001_AR
100
AcDbVertex
100
AcDb2dVertex
 10
71974.43434338602
 20
319250.1102158121
 30
0.0
  0
VERTEX
  5
9AD
330
98C
100
AcDbEntity
  8
001_AR
100
AcDbVertex
100
AcDb2dVertex
 10
71973.99615572348
 20
319249.8657156626
 30
0.0
  0
VERTEX
  5
9AE
330
98C
100
AcDbEntity
  8
001_AR
100
AcDbVertex
100
AcDb2dVertex
 10
71973.55790779474
 20
319249.621276786
 30
0.0
  0
VERTEX
  5
9AF
330
98C
100
AcDbEntity
  8
001_AR
100
AcDbVertex
100
AcDb2dVertex
 10
71973.11959821643
 20
319249.3769016915
 30
0.0
  0
VERTEX
  5
9B0
330
98C
100
AcDbEntity
  8
001_AR
100
AcDbVertex
100
AcDb2dVertex
 10
71972.6812256063
 20
319249.1325928895
 30
0.0
  0
VERTEX
  5
9B1
330
98C
100
AcDbEntity
  8
001_AR
100
AcDbVertex
100
AcDb2dVertex
 10
71972.24278858317
 20
319248.8883528914
 30
0.0
  0
VERTEX
  5
9B2
330
98C
100
AcDbEntity
  8
001_AR
100
AcDbVertex
100
AcDb2dVertex
 10
71971.80428576709
 20
319248.6441842097
 30
0.0
  0
VERTEX
  5
9B3
330
98C
100
AcDbEntity
  8
001_AR
100
AcDbVertex
100
AcDb2dVertex
 10
71971.36571577933
 20
319248.4000893581
 30
0.0
  0
VERTEX
  5
9B4
330
98C
100
AcDbEntity
  8
001_AR
100
AcDbVertex
100
AcDb2dVertex
 10
71970.92707724242
 20
319248.1560708513
 30
0.0
  0
VERTEX
  5
9B5
330
98C
100
AcDbEntity
  8
001_AR
100
AcDbVertex
100
AcDb2dVertex
 10
71970.48836878018
 20
319247.9121312053
 30
0.0
  0
VERTEX
  5
9B6
330
98C
100
AcDbEntity
  8
001_AR
100
AcDbVertex
100
AcDb2dVertex
 10
71970.04958901781
 20
319247.6682729373
 30
0.0
  0
VERTEX
  5
9B7
330
98C
100
AcDbEntity
  8
001_AR
100
AcDbVertex
100
AcDb2dVertex
 10
71969.61073658189
 20
319247.4244985655
 30
0.0
  0
VERTEX
  5
9B8
330
98C
100
AcDbEntity
  8
001_AR
100
AcDbVertex
100
AcDb2dVertex
 10
71969.17181010042
 20
319247.1808106096
 30
0.0
  0
VERTEX
  5
9B9
330
98C
100
AcDbEntity
  8
001_AR
100
AcDbVertex
100
AcDb2dVertex
 10
71968.73280820291
 20
319246.9372115905
 30
0.0
  0
VERTEX
  5
9BA
330
98C
100
AcDbEntity
  8
001_AR
100
AcDbVertex
100
AcDb2dVertex
 10
71968.29372952041
 20
319246.6937040303
 30
0.0
  0
VERTEX
  5
9BB
330
98C
100
AcDbEntity
  8
001_AR
100
AcDbVertex
100
AcDb2dVertex
 10
71967.85457268551
 20
319246.4502904524
 30
0.0
  0
VERTEX
  5
9BC
330
98C
100
AcDbEntity
  8
001_AR
100
AcDbVertex
100
AcDb2dVertex
 10
71967.4153363324
 20
319246.2069733817
 30
0.0
  0
VERTEX
  5
9BD
330
98C
100
AcDbEntity
  8
001_AR
100
AcDbVertex
100
AcDb2dVertex
 10
71966.97601909693
 20
319245.9637553443
 30
0.0
  0
VERTEX
  5
9BE
330
98C
100
AcDbEntity
  8
001_AR
100
AcDbVertex
100
AcDb2dVertex
 10
71966.53661961673
 20
319245.7206388677
 30
0.0
  0
VERTEX
  5
9BF
330
98C
100
AcDbEntity
  8
001_AR
100
AcDbVertex
100
AcDb2dVertex
 10
71966.09713653105
 20
319245.4776264808
 30
0.0
  0
VERTEX
  5
9C0
330
98C
100
AcDbEntity
  8
001_AR
100
AcDbVertex
100
AcDb2dVertex
 10
71965.65756848099
 20
319245.2347207139
 30
0.0
  0
VERTEX
  5
9C1
330
98C
100
AcDbEntity
  8
001_AR
100
AcDbVertex
100
AcDb2dVertex
 10
71965.21791410952
 20
319244.9919240989
 30
0.0
  0
VERTEX
  5
9C2
330
98C
100
AcDbEntity
  8
001_AR
100
AcDbVertex
100
AcDb2dVertex
 10
71964.77817206138
 20
319244.749239169
 30
0.0
  0
VERTEX
  5
9C3
330
98C
100
AcDbEntity
  8
001_AR
100
AcDbVertex
100
AcDb2dVertex
 10
71964.3383409833
 20
319244.5066684588
 30
0.0
  0
VERTEX
  5
9C4
330
98C
100
AcDbEntity
  8
001_AR
100
AcDbVertex
100
AcDb2dVertex
 10
71963.89841952401
 20
319244.2642145048
 30
0.0
  0
VERTEX
  5
9C5
330
98C
100
AcDbEntity
  8
001_AR
100
AcDbVertex
100
AcDb2dVertex
 10
71963.45840633411
 20
319244.0218798446
 30
0.0
  0
VERTEX
  5
9C6
330
98C
100
AcDbEntity
  8
001_AR
100
AcDbVertex
100
AcDb2dVertex
 10
71963.0183000664
 20
319243.7796670178
 30
0.0
  0
VERTEX
  5
9C7
330
98C
100
AcDbEntity
  8
001_AR
100
AcDbVertex
100
AcDb2dVertex
 10
71962.57809937567
 20
319243.537578565
 30
0.0
  0
VERTEX
  5
9C8
330
98C
100
AcDbEntity
  8
001_AR
100
AcDbVertex
100
AcDb2dVertex
 10
71962.13780291892
 20
319243.295617029
 30
0.0
  0
VERTEX
  5
9C9
330
98C
100
AcDbEntity
  8
001_AR
100
AcDbVertex
100
AcDb2dVertex
 10
71961.69740935527
 20
319243.0537849538
 30
0.0
  0
VERTEX
  5
9CA
330
98C
100
AcDbEntity
  8
001_AR
100
AcDbVertex
100
AcDb2dVertex
 10
71961.25691734611
 20
319242.8120848853
 30
0.0
  0
VERTEX
  5
9CB
330
98C
100
AcDbEntity
  8
001_AR
100
AcDbVertex
100
AcDb2dVertex
 10
71960.81632555505
 20
319242.5705193709
 30
0.0
  0
VERTEX
  5
9CC
330
98C
100
AcDbEntity
  8
001_AR
100
AcDbVertex
100
AcDb2dVertex
 10
71960.37563264806
 20
319242.3290909599
 30
0.0
  0
VERTEX
  5
9CD
330
98C
100
AcDbEntity
  8
001_AR
100
AcDbVertex
100
AcDb2dVertex
 10
71959.93483729349
 20
319242.087802203
 30
0.0
  0
VERTEX
  5
9CE
330
98C
100
AcDbEntity
  8
001_AR
100
AcDbVertex
100
AcDb2dVertex
 10
71959.493938162
 20
319241.8466556531
 30
0.0
  0
VERTEX
  5
9CF
330
98C
100
AcDbEntity
  8
001_AR
100
AcDbVertex
100
AcDb2dVertex
 10
71959.05293392681
 20
319241.6056538643
 30
0.0
  0
VERTEX
  5
9D0
330
98C
100
AcDbEntity
  8
001_AR
100
AcDbVertex
100
AcDb2dVertex
 10
71958.61182326353
 20
319241.3647993929
 30
0.0
  0
VERTEX
  5
9D1
330
98C
100
AcDbEntity
  8
001_AR
100
AcDbVertex
100
AcDb2dVertex
 10
71958.17060485039
 20
319241.1240947969
 30
0.0
  0
VERTEX
  5
9D2
330
98C
100
AcDbEntity
  8
001_AR
100
AcDbVertex
100
AcDb2dVertex
 10
71957.72927736811
 20
319240.8835426359
 30
0.0
  0
VERTEX
  5
9D3
330
98C
100
AcDbEntity
  8
001_AR
100
AcDbVertex
100
AcDb2dVertex
 10
71957.28783950013
 20
319240.6431454717
 30
0.0
  0
VERTEX
  5
9D4
330
98C
100
AcDbEntity
  8
001_AR
100
AcDbVertex
100
AcDb2dVertex
 10
71956.84628993248
 20
319240.4029058679
 30
0.0
  0
VERTEX
  5
9D5
330
98C
100
AcDbEntity
  8
001_AR
100
AcDbVertex
100
AcDb2dVertex
 10
71956.40462735397
 20
319240.1628263896
 30
0.0
  0
VERTEX
  5
9D6
330
98C
100
AcDbEntity
  8
001_AR
100
AcDbVertex
100
AcDb2dVertex
 10
71955.96285045611
 20
319239.9229096043
 30
0.0
  0
VERTEX
  5
9D7
330
98C
100
AcDbEntity
  8
001_AR
100
AcDbVertex
100
AcDb2dVertex
 10
71955.52095793327
 20
319239.6831580812
 30
0.0
  0
VERTEX
  5
9D8
330
98C
100
AcDbEntity
  8
001_AR
100
AcDbVertex
100
AcDb2dVertex
 10
71955.07894848259
 20
319239.4435743914
 30
0.0
  0
VERTEX
  5
9D9
330
98C
100
AcDbEntity
  8
001_AR
100
AcDbVertex
100
AcDb2dVertex
 10
71954.63682080421
 20
319239.2041611082
 30
0.0
  0
VERTEX
  5
9DA
330
98C
100
AcDbEntity
  8
001_AR
100
AcDbVertex
100
AcDb2dVertex
 10
71954.19457360112
 20
319238.9649208066
 30
0.0
  0
VERTEX
  5
9DB
330
98C
100
AcDbEntity
  8
001_AR
100
AcDbVertex
100
AcDb2dVertex
 10
71953.75220557933
 20
319238.7258560639
 30
0.0
  0
VERTEX
  5
9DC
330
98C
100
AcDbEntity
  8
001_AR
100
AcDbVertex
100
AcDb2dVertex
 10
71953.30971544787
 20
319238.4869694592
 30
0.0
  0
VERTEX
  5
9DD
330
98C
100
AcDbEntity
  8
001_AR
100
AcDbVertex
100
AcDb2dVertex
 10
71952.86710191882
 20
319238.2482635739
 30
0.0
  0
VERTEX
  5
9DE
330
98C
100
AcDbEntity
  8
001_AR
100
AcDbVertex
100
AcDb2dVertex
 10
71952.42436370742
 20
319238.0097409911
 30
0.0
  0
VERTEX
  5
9DF
330
98C
100
AcDbEntity
  8
001_AR
100
AcDbVertex
100
AcDb2dVertex
 10
71951.98149953206
 20
319237.7714042965
 30
0.0
  0
VERTEX
  5
9E0
330
98C
100
AcDbEntity
  8
001_AR
100
AcDbVertex
100
AcDb2dVertex
 10
71951.53850811432
 20
319237.5332560775
 30
0.0
  0
VERTEX
  5
9E1
330
98C
100
AcDbEntity
  8
001_AR
100
AcDbVertex
100
AcDb2dVertex
 10
71951.09538817905
 20
319237.2952989238
 30
0.0
  0
VERTEX
  5
9E2
330
98C
100
AcDbEntity
  8
001_AR
100
AcDbVertex
100
AcDb2dVertex
 10
71950.65213845439
 20
319237.0575354273
 30
0.0
  0
VERTEX
  5
9E3
330
98C
100
AcDbEntity
  8
001_AR
100
AcDbVertex
100
AcDb2dVertex
 10
71950.20875767185
 20
319236.819968182
 30
0.0
  0
VERTEX
  5
9E4
330
98C
100
AcDbEntity
  8
001_AR
100
AcDbVertex
100
AcDb2dVertex
 10
71949.76524456631
 20
319236.5825997843
 30
0.0
  0
VERTEX
  5
9E5
330
98C
100
AcDbEntity
  8
001_AR
100
AcDbVertex
100
AcDb2dVertex
 10
71949.32159787604
 20
319236.3454328325
 30
0.0
  0
VERTEX
  5
9E6
330
98C
100
AcDbEntity
  8
001_AR
100
AcDbVertex
100
AcDb2dVertex
 10
71948.87781634291
 20
319236.1084699273
 30
0.0
  0
VERTEX
  5
9E7
330
98C
100
AcDbEntity
  8
001_AR
100
AcDbVertex
100
AcDb2dVertex
 10
71948.43389871219
 20
319235.8717136717
 30
0.0
  0
VERTEX
  5
9E8
330
98C
100
AcDbEntity
  8
001_AR
100
AcDbVertex
100
AcDb2dVertex
 10
71947.98984373279
 20
319235.635166671
 30
0.0
  0
VERTEX
  5
9E9
330
98C
100
AcDbEntity
  8
001_AR
100
AcDbVertex
100
AcDb2dVertex
 10
71947.54565015723
 20
319235.3988315326
 30
0.0
  0
VERTEX
  5
9EA
330
98C
100
AcDbEntity
  8
001_AR
100
AcDbVertex
100
AcDb2dVertex
 10
71947.10131674169
 20
319235.1627108665
 30
0.0
  0
VERTEX
  5
9EB
330
98C
100
AcDbEntity
  8
001_AR
100
AcDbVertex
100
AcDb2dVertex
 10
71946.65684224607
 20
319234.9268072849
 30
0.0
  0
VERTEX
  5
9EC
330
98C
100
AcDbEntity
  8
001_AR
100
AcDbVertex
100
AcDb2dVertex
 10
71946.21222543401
 20
319234.6911234023
 30
0.0
  0
VERTEX
  5
9ED
330
98C
100
AcDbEntity
  8
001_AR
100
AcDbVertex
100
AcDb2dVertex
 10
71945.76746507294
 20
319234.4556618357
 30
0.0
  0
VERTEX
  5
9EE
330
98C
100
AcDbEntity
  8
001_AR
100
AcDbVertex
100
AcDb2dVertex
 10
71945.32255993419
 20
319234.2204252043
 30
0.0
  0
VERTEX
  5
9EF
330
98C
100
AcDbEntity
  8
001_AR
100
AcDbVertex
100
AcDb2dVertex
 10
71944.87750879294
 20
319233.98541613
 30
0.0
  0
VERTEX
  5
9F0
330
98C
100
AcDbEntity
  8
001_AR
100
AcDbVertex
100
AcDb2dVertex
 10
71944.43231042831
 20
319233.750637237
 30
0.0
  0
VERTEX
  5
9F1
330
98C
100
AcDbEntity
  8
001_AR
100
AcDbVertex
100
AcDb2dVertex
 10
71943.98696362344
 20
319233.5160911518
 30
0.0
  0
VERTEX
  5
9F2
330
98C
100
AcDbEntity
  8
001_AR
100
AcDbVertex
100
AcDb2dVertex
 10
71943.54146716547
 20
319233.2817805036
 30
0.0
  0
VERTEX
  5
9F3
330
98C
100
AcDbEntity
  8
001_AR
100
AcDbVertex
100
AcDb2dVertex
 10
71943.09581984566
 20
319233.0477079241
 30
0.0
  0
VERTEX
  5
9F4
330
98C
100
AcDbEntity
  8
001_AR
100
AcDbVertex
100
AcDb2dVertex
 10
71942.65002045933
 20
319232.8138760473
 30
0.0
  0
VERTEX
  5
9F5
330
98C
100
AcDbEntity
  8
001_AR
100
AcDbVertex
100
AcDb2dVertex
 10
71942.20406780606
 20
319232.5802875099
 30
0.0
  0
VERTEX
  5
9F6
330
98C
100
AcDbEntity
  8
001_AR
100
AcDbVertex
100
AcDb2dVertex
 10
71941.75796068956
 20
319232.3469449509
 30
0.0
  0
VERTEX
  5
9F7
330
98C
100
AcDbEntity
  8
001_AR
100
AcDbVertex
100
AcDb2dVertex
 10
71941.3116979179
 20
319232.1138510124
 30
0.0
  0
VERTEX
  5
9F8
330
98C
100
AcDbEntity
  8
001_AR
100
AcDbVertex
100
AcDb2dVertex
 10
71940.86527830338
 20
319231.8810083385
 30
0.0
  0
VERTEX
  5
9F9
330
98C
100
AcDbEntity
  8
001_AR
100
AcDbVertex
100
AcDb2dVertex
 10
71940.41870066271
 20
319231.6484195762
 30
0.0
  0
VERTEX
  5
9FA
330
98C
100
AcDbEntity
  8
001_AR
100
AcDbVertex
100
AcDb2dVertex
 10
71939.971963817
 20
319231.4160873751
 30
0.0
  0
VERTEX
  5
9FB
330
98C
100
AcDbEntity
  8
001_AR
100
AcDbVertex
100
AcDb2dVertex
 10
71939.52506659179
 20
319231.1840143873
 30
0.0
  0
VERTEX
  5
9FC
330
98C
100
AcDbEntity
  8
001_AR
100
AcDbVertex
100
AcDb2dVertex
 10
71939.07800781716
 20
319230.9522032676
 30
0.0
  0
VERTEX
  5
9FD
330
98C
100
AcDbEntity
  8
001_AR
100
AcDbVertex
100
AcDb2dVertex
 10
71938.6307863277
 20
319230.7206566738
 30
0.0
  0
VERTEX
  5
9FE
330
98C
100
AcDbEntity
  8
001_AR
100
AcDbVertex
100
AcDb2dVertex
 10
71938.18340096263
 20
319230.4893772658
 30
0.0
 42
-0.0085774757173757
  0
VERTEX
  5
9FF
330
98C
100
AcDbEntity
  8
001_AR
100
AcDbVertex
100
AcDb2dVertex
 10
71913.46324218423
 20
319218.2524270609
 30
0.0
  0
VERTEX
  5
A00
330
98C
100
AcDbEntity
  8
001_AR
100
AcDbVertex
100
AcDb2dVertex
 10
71913.00805200159
 20
319218.0369143533
 30
0.0
  0
VERTEX
  5
A01
330
98C
100
AcDbEntity
  8
001_AR
100
AcDbVertex
100
AcDb2dVertex
 10
71912.55274872627
 20
319217.8216939704
 30
0.0
  0
VERTEX
  5
A02
330
98C
100
AcDbEntity
  8
001_AR
100
AcDbVertex
100
AcDb2dVertex
 10
71912.09733376975
 20
319217.6067633757
 30
0.0
  0
VERTEX
  5
A03
330
98C
100
AcDbEntity
  8
001_AR
100
AcDbVertex
100
AcDb2dVertex
 10
71911.64180853858
 20
319217.3921200312
 30
0.0
  0
VERTEX
  5
A04
330
98C
100
AcDbEntity
  8
001_AR
100
AcDbVertex
100
AcDb2dVertex
 10
71911.18617443444
 20
319217.1777613968
 30
0.0
  0
VERTEX
  5
A05
330
98C
100
AcDbEntity
  8
001_AR
100
AcDbVertex
100
AcDb2dVertex
 10
71910.73043285415
 20
319216.9636849303
 30
0.0
  0
VERTEX
  5
A06
330
98C
100
AcDbEntity
  8
001_AR
100
AcDbVertex
100
AcDb2dVertex
 10
71910.27458518976
 20
319216.7498880877
 30
0.0
  0
VERTEX
  5
A07
330
98C
100
AcDbEntity
  8
001_AR
100
AcDbVertex
100
AcDb2dVertex
 10
71909.81863282856
 20
319216.5363683232
 30
0.0
  0
VERTEX
  5
A08
330
98C
100
AcDbEntity
  8
001_AR
100
AcDbVertex
100
AcDb2dVertex
 10
71909.36257715312
 20
319216.3231230887
 30
0.0
  0
VERTEX
  5
A09
330
98C
100
AcDbEntity
  8
001_AR
100
AcDbVertex
100
AcDb2dVertex
 10
71908.90641954132
 20
319216.1101498344
 30
0.0
  0
VERTEX
  5
A0A
330
98C
100
AcDbEntity
  8
001_AR
100
AcDbVertex
100
AcDb2dVertex
 10
71908.45016136646
 20
319215.897446009
 30
0.0
  0
VERTEX
  5
A0B
330
98C
100
AcDbEntity
  8
001_AR
100
AcDbVertex
100
AcDb2dVertex
 10
71907.99380399722
 20
319215.6850090591
 30
0.0
  0
VERTEX
  5
A0C
330
98C
100
AcDbEntity
  8
001_AR
100
AcDbVertex
100
AcDb2dVertex
 10
71907.53734879774
 20
319215.4728364295
 30
0.0
  0
VERTEX
  5
A0D
330
98C
100
AcDbEntity
  8
001_AR
100
AcDbVertex
100
AcDb2dVertex
 10
71907.08079712771
 20
319215.2609255632
 30
0.0
  0
VERTEX
  5
A0E
330
98C
100
AcDbEntity
  8
001_AR
100
AcDbVertex
100
AcDb2dVertex
 10
71906.62415034227
 20
319215.0492739016
 30
0.0
  0
VERTEX
  5
A0F
330
98C
100
AcDbEntity
  8
001_AR
100
AcDbVertex
100
AcDb2dVertex
 10
71906.16740979228
 20
319214.8378788843
 30
0.0
  0
VERTEX
  5
A10
330
98C
100
AcDbEntity
  8
001_AR
100
AcDbVertex
100
AcDb2dVertex
 10
71905.71057682407
 20
319214.6267379495
 30
0.0
  0
VERTEX
  5
A11
330
98C
100
AcDbEntity
  8
001_AR
100
AcDbVertex
100
AcDb2dVertex
 10
71905.25365277979
 20
319214.4158485332
 30
0.0
  0
VERTEX
  5
A12
330
98C
100
AcDbEntity
  8
001_AR
100
AcDbVertex
100
AcDb2dVertex
 10
71904.79663899724
 20
319214.2052080703
 30
0.0
  0
VERTEX
  5
A13
330
98C
100
AcDbEntity
  8
001_AR
100
AcDbVertex
100
AcDb2dVertex
 10
71904.33953680999
 20
319213.9948139936
 30
0.0
  0
VERTEX
  5
A14
330
98C
100
AcDbEntity
  8
001_AR
100
AcDbVertex
100
AcDb2dVertex
 10
71903.88234754737
 20
319213.7846637348
 30
0.0
  0
VERTEX
  5
A15
330
98C
100
AcDbEntity
  8
001_AR
100
AcDbVertex
100
AcDb2dVertex
 10
71903.42507253463
 20
319213.5747547238
 30
0.0
  0
VERTEX
  5
A16
330
98C
100
AcDbEntity
  8
001_AR
100
AcDbVertex
100
AcDb2dVertex
 10
71902.96771309287
 20
319213.365084389
 30
0.0
  0
VERTEX
  5
A17
330
98C
100
AcDbEntity
  8
001_AR
100
AcDbVertex
100
AcDb2dVertex
 10
71902.51027053915
 20
319213.1556501571
 30
0.0
  0
VERTEX
  5
A18
330
98C
100
AcDbEntity
  8
001_AR
100
AcDbVertex
100
AcDb2dVertex
 10
71902.05274618644
 20
319212.9464494537
 30
0.0
  0
VERTEX
  5
A19
330
98C
100
AcDbEntity
  8
001_AR
100
AcDbVertex
100
AcDb2dVertex
 10
71901.59514134383
 20
319212.7374797028
 30
0.0
  0
VERTEX
  5
A1A
330
98C
100
AcDbEntity
  8
001_AR
100
AcDbVertex
100
AcDb2dVertex
 10
71901.13745731638
 20
319212.5287383267
 30
0.0
  0
VERTEX
  5
A1B
330
98C
100
AcDbEntity
  8
001_AR
100
AcDbVertex
100
AcDb2dVertex
 10
71900.67969540533
 20
319212.3202227467
 30
0.0
  0
VERTEX
  5
A1C
330
98C
100
AcDbEntity
  8
001_AR
100
AcDbVertex
100
AcDb2dVertex
 10
71900.22185690798
 20
319212.1119303823
 30
0.0
  0
VERTEX
  5
A1D
330
98C
100
AcDbEntity
  8
001_AR
100
AcDbVertex
100
AcDb2dVertex
 10
71899.76394311796
 20
319211.9038586521
 30
0.0
  0
VERTEX
  5
A1E
330
98C
100
AcDbEntity
  8
001_AR
100
AcDbVertex
100
AcDb2dVertex
 10
71899.30595532502
 20
319211.6960049731
 30
0.0
  0
VERTEX
  5
A1F
330
98C
100
AcDbEntity
  8
001_AR
100
AcDbVertex
100
AcDb2dVertex
 10
71898.84789481522
 20
319211.4883667608
 30
0.0
  0
VERTEX
  5
A20
330
98C
100
AcDbEntity
  8
001_AR
100
AcDbVertex
100
AcDb2dVertex
 10
71898.38976287097
 20
319211.2809414297
 30
0.0
  0
VERTEX
  5
A21
330
98C
100
AcDbEntity
  8
001_AR
100
AcDbVertex
100
AcDb2dVertex
 10
71897.93156077104
 20
319211.073726393
 30
0.0
  0
VERTEX
  5
A22
330
98C
100
AcDbEntity
  8
001_AR
100
AcDbVertex
100
AcDb2dVertex
 10
71897.47328979059
 20
319210.8667190626
 30
0.0
  0
VERTEX
  5
A23
330
98C
100
AcDbEntity
  8
001_AR
100
AcDbVertex
100
AcDb2dVertex
 10
71897.01495120129
 20
319210.6599168492
 30
0.0
  0
VERTEX
  5
A24
330
98C
100
AcDbEntity
  8
001_AR
100
AcDbVertex
100
AcDb2dVertex
 10
71896.55654627124
 20
319210.4533171623
 30
0.0
  0
VERTEX
  5
A25
330
98C
100
AcDbEntity
  8
001_AR
100
AcDbVertex
100
AcDb2dVertex
 10
71896.09807626512
 20
319210.2469174102
 30
0.0
  0
VERTEX
  5
A26
330
98C
100
AcDbEntity
  8
001_AR
100
AcDbVertex
100
AcDb2dVertex
 10
71895.63954244423
 20
319210.040715
 30
0.0
  0
VERTEX
  5
A27
330
98C
100
AcDbEntity
  8
001_AR
100
AcDbVertex
100
AcDb2dVertex
 10
71895.18094606645
 20
319209.8347073378
 30
0.0
  0
VERTEX
  5
A28
330
98C
100
AcDbEntity
  8
001_AR
100
AcDbVertex
100
AcDb2dVertex
 10
71894.72228838636
 20
319209.6288918286
 30
0.0
  0
VERTEX
  5
A29
330
98C
100
AcDbEntity
  8
001_AR
100
AcDbVertex
100
AcDb2dVertex
 10
71894.26357065525
 20
319209.4232658762
 30
0.0
  0
VERTEX
  5
A2A
330
98C
100
AcDbEntity
  8
001_AR
100
AcDbVertex
100
AcDb2dVertex
 10
71893.8047941212
 20
319209.2178268833
 30
0.0
  0
VERTEX
  5
A2B
330
98C
100
AcDbEntity
  8
001_AR
100
AcDbVertex
100
AcDb2dVertex
 10
71893.34596002907
 20
319209.0125722519
 30
0.0
  0
VERTEX
  5
A2C
330
98C
100
AcDbEntity
  8
001_AR
100
AcDbVertex
100
AcDb2dVertex
 10
71892.88706962057
 20
319208.8074993826
 30
0.0
  0
VERTEX
  5
A2D
330
98C
100
AcDbEntity
  8
001_AR
100
AcDbVertex
100
AcDb2dVertex
 10
71892.42812413432
 20
319208.6026056753
 30
0.0
  0
VERTEX
  5
A2E
330
98C
100
AcDbEntity
  8
001_AR
100
AcDbVertex
100
AcDb2dVertex
 10
71891.96912480594
 20
319208.3978885285
 30
0.0
  0
VERTEX
  5
A2F
330
98C
100
AcDbEntity
  8
001_AR
100
AcDbVertex
100
AcDb2dVertex
 10
71891.51007286788
 20
319208.1933453403
 30
0.0
  0
VERTEX
  5
A30
330
98C
100
AcDbEntity
  8
001_AR
100
AcDbVertex
100
AcDb2dVertex
 10
71891.05096954979
 20
319207.9889735076
 30
0.0
  0
VERTEX
  5
A31
330
98C
100
AcDbEntity
  8
001_AR
100
AcDbVertex
100
AcDb2dVertex
 10
71890.59181607827
 20
319207.7847704263
 30
0.0
  0
VERTEX
  5
A32
330
98C
100
AcDbEntity
  8
001_AR
100
AcDbVertex
100
AcDb2dVertex
 10
71890.13261367712
 20
319207.5807334916
 30
0.0
  0
VERTEX
  5
A33
330
98C
100
AcDbEntity
  8
001_AR
100
AcDbVertex
100
AcDb2dVertex
 10
71889.67336356727
 20
319207.3768600979
 30
0.0
  0
VERTEX
  5
A34
330
98C
100
AcDbEntity
  8
001_AR
100
AcDbVertex
100
AcDb2dVertex
 10
71889.21406696684
 20
319207.1731476386
 30
0.0
  0
VERTEX
  5
A35
330
98C
100
AcDbEntity
  8
001_AR
100
AcDbVertex
100
AcDb2dVertex
 10
71888.75472509123
 20
319206.9695935062
 30
0.0
  0
VERTEX
  5
A36
330
98C
100
AcDbEntity
  8
001_AR
100
AcDbVertex
100
AcDb2dVertex
 10
71888.29533915311
 20
319206.7661950928
 30
0.0
  0
VERTEX
  5
A37
330
98C
100
AcDbEntity
  8
001_AR
100
AcDbVertex
100
AcDb2dVertex
 10
71887.83591036251
 20
319206.5629497891
 30
0.0
  0
VERTEX
  5
A38
330
98C
100
AcDbEntity
  8
001_AR
100
AcDbVertex
100
AcDb2dVertex
 10
71887.37643992685
 20
319206.3598549858
 30
0.0
  0
VERTEX
  5
A39
330
98C
100
AcDbEntity
  8
001_AR
100
AcDbVertex
100
AcDb2dVertex
 10
71886.91692905093
 20
319206.1569080723
 30
0.0
  0
VERTEX
  5
A3A
330
98C
100
AcDbEntity
  8
001_AR
100
AcDbVertex
100
AcDb2dVertex
 10
71886.45737893709
 20
319205.9541064375
 30
0.0
  0
VERTEX
  5
A3B
330
98C
100
AcDbEntity
  8
001_AR
100
AcDbVertex
100
AcDb2dVertex
 10
71885.99779078516
 20
319205.7514474697
 30
0.0
  0
VERTEX
  5
A3C
330
98C
100
AcDbEntity
  8
001_AR
100
AcDbVertex
100
AcDb2dVertex
 10
71885.53816579251
 20
319205.5489285564
 30
0.0
  0
VERTEX
  5
A3D
330
98C
100
AcDbEntity
  8
001_AR
100
AcDbVertex
100
AcDb2dVertex
 10
71885.07850515414
 20
319205.3465470844
 30
0.0
  0
VERTEX
  5
A3E
330
98C
100
AcDbEntity
  8
001_AR
100
AcDbVertex
100
AcDb2dVertex
 10
71884.61881006273
 20
319205.1443004402
 30
0.0
  0
VERTEX
  5
A3F
330
98C
100
AcDbEntity
  8
001_AR
100
AcDbVertex
100
AcDb2dVertex
 10
71884.15908170856
 20
319204.9421860093
 30
0.0
  0
VERTEX
  5
A40
330
98C
100
AcDbEntity
  8
001_AR
100
AcDbVertex
100
AcDb2dVertex
 10
71883.69932127978
 20
319204.7402011769
 30
0.0
  0
VERTEX
  5
A41
330
98C
100
AcDbEntity
  8
001_AR
100
AcDbVertex
100
AcDb2dVertex
 10
71883.23952996221
 20
319204.5383433274
 30
0.0
  0
VERTEX
  5
A42
330
98C
100
AcDbEntity
  8
001_AR
100
AcDbVertex
100
AcDb2dVertex
 10
71882.77970893959
 20
319204.336609845
 30
0.0
  0
VERTEX
  5
A43
330
98C
100
AcDbEntity
  8
001_AR
100
AcDbVertex
100
AcDb2dVertex
 10
71882.31985939347
 20
319204.134998113
 30
0.0
  0
VERTEX
  5
A44
330
98C
100
AcDbEntity
  8
001_AR
100
AcDbVertex
100
AcDb2dVertex
 10
71881.85998250334
 20
319203.9335055146
 30
0.0
  0
VERTEX
  5
A45
330
98C
100
AcDbEntity
  8
001_AR
100
AcDbVertex
100
AcDb2dVertex
 10
71881.40007944667
 20
319203.732129432
 30
0.0
  0
VERTEX
  5
A46
330
98C
100
AcDbEntity
  8
001_AR
100
AcDbVertex
100
AcDb2dVertex
 10
71880.94015139893
 20
319203.5308672477
 30
0.0
  0
VERTEX
  5
A47
330
98C
100
AcDbEntity
  8
001_AR
100
AcDbVertex
100
AcDb2dVertex
 10
71880.48019953363
 20
319203.3297163431
 30
0.0
  0
VERTEX
  5
A48
330
98C
100
AcDbEntity
  8
001_AR
100
AcDbVertex
100
AcDb2dVertex
 10
71880.02022502238
 20
319203.1286740992
 30
0.0
  0
VERTEX
  5
A49
330
98C
100
AcDbEntity
  8
001_AR
100
AcDbVertex
100
AcDb2dVertex
 10
71879.56022903494
 20
319202.9277378972
 30
0.0
  0
VERTEX
  5
A4A
330
98C
100
AcDbEntity
  8
001_AR
100
AcDbVertex
100
AcDb2dVertex
 10
71879.1002127393
 20
319202.7269051174
 30
0.0
  0
VERTEX
  5
A4B
330
98C
100
AcDbEntity
  8
001_AR
100
AcDbVertex
100
AcDb2dVertex
 10
71878.64017730158
 20
319202.52617314
 30
0.0
  0
VERTEX
  5
A4C
330
98C
100
AcDbEntity
  8
001_AR
100
AcDbVertex
100
AcDb2dVertex
 10
71878.18012388627
 20
319202.3255393445
 30
0.0
  0
VERTEX
  5
A4D
330
98C
100
AcDbEntity
  8
001_AR
100
AcDbVertex
100
AcDb2dVertex
 10
71877.72005365614
 20
319202.1250011105
 30
0.0
  0
VERTEX
  5
A4E
330
98C
100
AcDbEntity
  8
001_AR
100
AcDbVertex
100
AcDb2dVertex
 10
71877.25996777232
 20
319201.9245558173
 30
0.0
  0
VERTEX
  5
A4F
330
98C
100
AcDbEntity
  8
001_AR
100
AcDbVertex
100
AcDb2dVertex
 10
71876.79986739439
 20
319201.7242008436
 30
0.0
  0
VERTEX
  5
A50
330
98C
100
AcDbEntity
  8
001_AR
100
AcDbVertex
100
AcDb2dVertex
 10
71876.33975368036
 20
319201.5239335681
 30
0.0
  0
VERTEX
  5
A51
330
98C
100
AcDbEntity
  8
001_AR
100
AcDbVertex
100
AcDb2dVertex
 10
71875.87962778672
 20
319201.3237513694
 30
0.0
  0
VERTEX
  5
A52
330
98C
100
AcDbEntity
  8
001_AR
100
AcDbVertex
100
AcDb2dVertex
 10
71875.41949086856
 20
319201.1236516254
 30
0.0
  0
VERTEX
  5
A53
330
98C
100
AcDbEntity
  8
001_AR
100
AcDbVertex
100
AcDb2dVertex
 10
71874.95934407952
 20
319200.9236317144
 30
0.0
  0
VERTEX
  5
A54
330
98C
100
AcDbEntity
  8
001_AR
100
AcDbVertex
100
AcDb2dVertex
 10
71874.49918857187
 20
319200.723689014
 30
0.0
  0
VERTEX
  5
A55
330
98C
100
AcDbEntity
  8
001_AR
100
AcDbVertex
100
AcDb2dVertex
 10
71874.03902549659
 20
319200.5238209019
 30
0.0
  0
VERTEX
  5
A56
330
98C
100
AcDbEntity
  8
001_AR
100
AcDbVertex
100
AcDb2dVertex
 10
71873.57885600337
 20
319200.3240247559
 30
0.0
  0
VERTEX
  5
A57
330
98C
100
AcDbEntity
  8
001_AR
100
AcDbVertex
100
AcDb2dVertex
 10
71873.11868124065
 20
319200.1242979531
 30
0.0
  0
VERTEX
  5
A58
330
98C
100
AcDbEntity
  8
001_AR
100
AcDbVertex
100
AcDb2dVertex
 10
71872.65850235572
 20
319199.9246378712
 30
0.0
  0
VERTEX
  5
A59
330
98C
100
AcDbEntity
  8
001_AR
100
AcDbVertex
100
AcDb2dVertex
 10
71872.19832049471
 20
319199.7250418873
 30
0.0
  0
VERTEX
  5
A5A
330
98C
100
AcDbEntity
  8
001_AR
100
AcDbVertex
100
AcDb2dVertex
 10
71871.73813680268
 20
319199.5255073786
 30
0.0
  0
VERTEX
  5
A5B
330
98C
100
AcDbEntity
  8
001_AR
100
AcDbVertex
100
AcDb2dVertex
 10
71871.2779524236
 20
319199.3260317223
 30
0.0
  0
VERTEX
  5
A5C
330
98C
100
AcDbEntity
  8
001_AR
100
AcDbVertex
100
AcDb2dVertex
 10
71870.81776850043
 20
319199.1266122958
 30
0.0
  0
VERTEX
  5
A5D
330
98C
100
AcDbEntity
  8
001_AR
100
AcDbVertex
100
AcDb2dVertex
 10
71870.35758617523
 20
319198.927246476
 30
0.0
  0
VERTEX
  5
A5E
330
98C
100
AcDbEntity
  8
001_AR
100
AcDbVertex
100
AcDb2dVertex
 10
71869.89740658908
 20
319198.7279316403
 30
0.0
  0
VERTEX
  5
A5F
330
98C
100
AcDbEntity
  8
001_AR
100
AcDbVertex
100
AcDb2dVertex
 10
71869.43723088222
 20
319198.5286651659
 30
0.0
  0
VERTEX
  5
A60
330
98C
100
AcDbEntity
  8
001_AR
100
AcDbVertex
100
AcDb2dVertex
 10
71868.97706019405
 20
319198.3294444302
 30
0.0
  0
VERTEX
  5
A61
330
98C
100
AcDbEntity
  8
001_AR
100
AcDbVertex
100
AcDb2dVertex
 10
71868.51689566321
 20
319198.1302668105
 30
0.0
  0
VERTEX
  5
A62
330
98C
100
AcDbEntity
  8
001_AR
100
AcDbVertex
100
AcDb2dVertex
 10
71868.05673842758
 20
319197.9311296844
 30
0.0
  0
VERTEX
  5
A63
330
98C
100
AcDbEntity
  8
001_AR
100
AcDbVertex
100
AcDb2dVertex
 10
71867.59658962434
 20
319197.7320304296
 30
0.0
  0
VERTEX
  5
A64
330
98C
100
AcDbEntity
  8
001_AR
100
AcDbVertex
100
AcDb2dVertex
 10
71867.13645039007
 20
319197.5329664237
 30
0.0
  0
VERTEX
  5
A65
330
98C
100
AcDbEntity
  8
001_AR
100
AcDbVertex
100
AcDb2dVertex
 10
71866.67632186069
 20
319197.3339350449
 30
0.0
  0
VERTEX
  5
A66
330
98C
100
AcDbEntity
  8
001_AR
100
AcDbVertex
100
AcDb2dVertex
 10
71866.21620517161
 20
319197.1349336711
 30
0.0
  0
VERTEX
  5
A67
330
98C
100
AcDbEntity
  8
001_AR
100
AcDbVertex
100
AcDb2dVertex
 10
71865.75610145769
 20
319196.9359596808
 30
0.0
  0
VERTEX
  5
A68
330
98C
100
AcDbEntity
  8
001_AR
100
AcDbVertex
100
AcDb2dVertex
 10
71865.29601185333
 20
319196.7370104526
 30
0.0
  0
VERTEX
  5
A69
330
98C
100
AcDbEntity
  8
001_AR
100
AcDbVertex
100
AcDb2dVertex
 10
71864.83593749254
 20
319196.5380833651
 30
0.0
  0
VERTEX
  5
A6A
330
98C
100
AcDbEntity
  8
001_AR
100
AcDbVertex
100
AcDb2dVertex
 10
71864.37587950893
 20
319196.3391757975
 30
0.0
  0
VERTEX
  5
A6B
330
98C
100
AcDbEntity
  8
001_AR
100
AcDbVertex
100
AcDb2dVertex
 10
71863.91583903572
 20
319196.1402851291
 30
0.0
  0
VERTEX
  5
A6C
330
98C
100
AcDbEntity
  8
001_AR
100
AcDbVertex
100
AcDb2dVertex
 10
71863.45581720596
 20
319195.9414087396
 30
0.0
  0
VERTEX
  5
A6D
330
98C
100
AcDbEntity
  8
001_AR
100
AcDbVertex
100
AcDb2dVertex
 10
71862.99581515236
 20
319195.7425440089
 30
0.0
  0
VERTEX
  5
A6E
330
98C
100
AcDbEntity
  8
001_AR
100
AcDbVertex
100
AcDb2dVertex
 10
71806.97874976293
 20
319171.5257182183
 30
0.0
  0
SEQEND
  5
A6F
330
98C
100
AcDbEntity
  8
001_AR
  0
POLYLINE
  5
A70
330
1F
100
AcDbEntity
  8
001_AR
100
AcDb2dPolyline
 66
     1
 10
0.0
 20
0.0
 30
0.0
  0
VERTEX
  5
A71
330
A70
100
AcDbEntity
  8
001_AR
100
AcDbVertex
100
AcDb2dVertex
 10
72050.81852430635
 20
319302.5430163945
 30
0.0
  0
VERTEX
  5
A72
330
A70
100
AcDbEntity
  8
001_AR
100
AcDbVertex
100
AcDb2dVertex
 10
72043.59348487358
 20
319298.2486141279
 30
0.0
 42
0.0003891049608519
  0
VERTEX
  5
A73
330
A70
100
AcDbEntity
  8
001_AR
100
AcDbVertex
100
AcDb2dVertex
 10
72032.85324561396
 20
319292.0452314444
 30
0.0
  0
VERTEX
  5
A74
330
A70
100
AcDbEntity
  8
001_AR
100
AcDbVertex
100
AcDb2dVertex
 10
71982.77054183095
 20
319263.9479569525
 30
0.0
  0
VERTEX
  5
A75
330
A70
100
AcDbEntity
  8
001_AR
100
AcDbVertex
100
AcDb2dVertex
 10
71982.33349675597
 20
319263.7027675518
 30
0.0
  0
VERTEX
  5
A76
330
A70
100
AcDbEntity
  8
001_AR
100
AcDbVertex
100
AcDb2dVertex
 10
71981.89647015094
 20
319263.4575917851
 30
0.0
  0
VERTEX
  5
A77
330
A70
100
AcDbEntity
  8
001_AR
100
AcDbVertex
100
AcDb2dVertex
 10
71981.45946061985
 20
319263.2124321408
 30
0.0
  0
VERTEX
  5
A78
330
A70
100
AcDbEntity
  8
001_AR
100
AcDbVertex
100
AcDb2dVertex
 10
71981.02246676699
 20
319262.967291107
 30
0.0
  0
VERTEX
  5
A79
330
A70
100
AcDbEntity
  8
001_AR
100
AcDbVertex
100
AcDb2dVertex
 10
71980.58548719698
 20
319262.7221711717
 30
0.0
  0
VERTEX
  5
A7A
330
A70
100
AcDbEntity
  8
001_AR
100
AcDbVertex
100
AcDb2dVertex
 10
71980.14852051479
 20
319262.4770748224
 30
0.0
  0
VERTEX
  5
A7B
330
A70
100
AcDbEntity
  8
001_AR
100
AcDbVertex
100
AcDb2dVertex
 10
71979.71156532577
 20
319262.2320045464
 30
0.0
  0
VERTEX
  5
A7C
330
A70
100
AcDbEntity
  8
001_AR
100
AcDbVertex
100
AcDb2dVertex
 10
71979.27462023578
 20
319261.9869628312
 30
0.0
  0
VERTEX
  5
A7D
330
A70
100
AcDbEntity
  8
001_AR
100
AcDbVertex
100
AcDb2dVertex
 10
71978.83768385109
 20
319261.7419521636
 30
0.0
  0
VERTEX
  5
A7E
330
A70
100
AcDbEntity
  8
001_AR
100
AcDbVertex
100
AcDb2dVertex
 10
71978.40075477857
 20
319261.4969750306
 30
0.0
  0
VERTEX
  5
A7F
330
A70
100
AcDbEntity
  8
001_AR
100
AcDbVertex
100
AcDb2dVertex
 10
71977.96383162558
 20
319261.2520339189
 30
0.0
  0
VERTEX
  5
A80
330
A70
100
AcDbEntity
  8
001_AR
100
AcDbVertex
100
AcDb2dVertex
 10
71977.52691300021
 20
319261.0071313153
 30
0.0
  0
VERTEX
  5
A81
330
A70
100
AcDbEntity
  8
001_AR
100
AcDbVertex
100
AcDb2dVertex
 10
71977.08999751109
 20
319260.7622697062
 30
0.0
  0
VERTEX
  5
A82
330
A70
100
AcDbEntity
  8
001_AR
100
AcDbVertex
100
AcDb2dVertex
 10
71976.65308376764
 20
319260.5174515783
 30
0.0
  0
VERTEX
  5
A83
330
A70
100
AcDbEntity
  8
001_AR
100
AcDbVertex
100
AcDb2dVertex
 10
71976.21617037996
 20
319260.2726794179
 30
0.0
  0
VERTEX
  5
A84
330
A70
100
AcDbEntity
  8
001_AR
100
AcDbVertex
100
AcDb2dVertex
 10
71975.77925595897
 20
319260.0279557116
 30
0.0
  0
VERTEX
  5
A85
330
A70
100
AcDbEntity
  8
001_AR
100
AcDbVertex
100
AcDb2dVertex
 10
71975.34233911641
 20
319259.783282946
 30
0.0
  0
VERTEX
  5
A86
330
A70
100
AcDbEntity
  8
001_AR
100
AcDbVertex
100
AcDb2dVertex
 10
71974.9054184649
 20
319259.5386636075
 30
0.0
  0
VERTEX
  5
A87
330
A70
100
AcDbEntity
  8
001_AR
100
AcDbVertex
100
AcDb2dVertex
 10
71974.46849261793
 20
319259.2941001829
 30
0.0
  0
VERTEX
  5
A88
330
A70
100
AcDbEntity
  8
001_AR
100
AcDbVertex
100
AcDb2dVertex
 10
71974.03156018999
 20
319259.0495951586
 30
0.0
  0
VERTEX
  5
A89
330
A70
100
AcDbEntity
  8
001_AR
100
AcDbVertex
100
AcDb2dVertex
 10
71973.59461979656
 20
319258.8051510218
 30
0.0
  0
VERTEX
  5
A8A
330
A70
100
AcDbEntity
  8
001_AR
100
AcDbVertex
100
AcDb2dVertex
 10
71973.15767005415
 20
319258.5607702592
 30
0.0
  0
VERTEX
  5
A8B
330
A70
100
AcDbEntity
  8
001_AR
100
AcDbVertex
100
AcDb2dVertex
 10
71972.72070958034
 20
319258.3164553579
 30
0.0
  0
VERTEX
  5
A8C
330
A70
100
AcDbEntity
  8
001_AR
100
AcDbVertex
100
AcDb2dVertex
 10
71972.28373699387
 20
319258.0722088053
 30
0.0
  0
VERTEX
  5
A8D
330
A70
100
AcDbEntity
  8
001_AR
100
AcDbVertex
100
AcDb2dVertex
 10
71971.84675091462
 20
319257.8280330888
 30
0.0
  0
VERTEX
  5
A8E
330
A70
100
AcDbEntity
  8
001_AR
100
AcDbVertex
100
AcDb2dVertex
 10
71971.40974996369
 20
319257.5839306963
 30
0.0
  0
VERTEX
  5
A8F
330
A70
100
AcDbEntity
  8
001_AR
100
AcDbVertex
100
AcDb2dVertex
 10
71970.97273276343
 20
319257.3399041156
 30
0.0
  0
VERTEX
  5
A90
330
A70
100
AcDbEntity
  8
001_AR
100
AcDbVertex
100
AcDb2dVertex
 10
71970.53569793746
 20
319257.095955835
 30
0.0
  0
VERTEX
  5
A91
330
A70
100
AcDbEntity
  8
001_AR
100
AcDbVertex
100
AcDb2dVertex
 10
71970.0986441108
 20
319256.852088343
 30
0.0
  0
VERTEX
  5
A92
330
A70
100
AcDbEntity
  8
001_AR
100
AcDbVertex
100
AcDb2dVertex
 10
71969.66156990978
 20
319256.6083041286
 30
0.0
  0
VERTEX
  5
A93
330
A70
100
AcDbEntity
  8
001_AR
100
AcDbVertex
100
AcDb2dVertex
 10
71969.22447396218
 20
319256.3646056809
 30
0.0
  0
VERTEX
  5
A94
330
A70
100
AcDbEntity
  8
001_AR
100
AcDbVertex
100
AcDb2dVertex
 10
71968.78735489727
 20
319256.1209954897
 30
0.0
  0
VERTEX
  5
A95
330
A70
100
AcDbEntity
  8
001_AR
100
AcDbVertex
100
AcDb2dVertex
 10
71968.35021134578
 20
319255.8774760446
 30
0.0
  0
VERTEX
  5
A96
330
A70
100
AcDbEntity
  8
001_AR
100
AcDbVertex
100
AcDb2dVertex
 10
71967.91304194003
 20
319255.6340498364
 30
0.0
  0
VERTEX
  5
A97
330
A70
100
AcDbEntity
  8
001_AR
100
AcDbVertex
100
AcDb2dVertex
 10
71967.47584531392
 20
319255.3907193556
 30
0.0
  0
VERTEX
  5
A98
330
A70
100
AcDbEntity
  8
001_AR
100
AcDbVertex
100
AcDb2dVertex
 10
71967.03862010296
 20
319255.1474870937
 30
0.0
  0
VERTEX
  5
A99
330
A70
100
AcDbEntity
  8
001_AR
100
AcDbVertex
100
AcDb2dVertex
 10
71966.60136494439
 20
319254.9043555424
 30
0.0
  0
VERTEX
  5
A9A
330
A70
100
AcDbEntity
  8
001_AR
100
AcDbVertex
100
AcDb2dVertex
 10
71966.16407847713
 20
319254.661327194
 30
0.0
  0
VERTEX
  5
A9B
330
A70
100
AcDbEntity
  8
001_AR
100
AcDbVertex
100
AcDb2dVertex
 10
71965.72675934185
 20
319254.4184045413
 30
0.0
  0
VERTEX
  5
A9C
330
A70
100
AcDbEntity
  8
001_AR
100
AcDbVertex
100
AcDb2dVertex
 10
71965.28940618106
 20
319254.1755900777
 30
0.0
  0
VERTEX
  5
A9D
330
A70
100
AcDbEntity
  8
001_AR
100
AcDbVertex
100
AcDb2dVertex
 10
71964.85201763912
 20
319253.9328862971
 30
0.0
  0
VERTEX
  5
A9E
330
A70
100
AcDbEntity
  8
001_AR
100
AcDbVertex
100
AcDb2dVertex
 10
71964.41459236226
 20
319253.690295694
 30
0.0
  0
VERTEX
  5
A9F
330
A70
100
AcDbEntity
  8
001_AR
100
AcDbVertex
100
AcDb2dVertex
 10
71963.97712899862
 20
319253.4478207635
 30
0.0
  0
VERTEX
  5
AA0
330
A70
100
AcDbEntity
  8
001_AR
100
AcDbVertex
100
AcDb2dVertex
 10
71963.53962619839
 20
319253.2054640017
 30
0.0
  0
VERTEX
  5
AA1
330
A70
100
AcDbEntity
  8
001_AR
100
AcDbVertex
100
AcDb2dVertex
 10
71963.10208261371
 20
319252.9632279047
 30
0.0
  0
VERTEX
  5
AA2
330
A70
100
AcDbEntity
  8
001_AR
100
AcDbVertex
100
AcDb2dVertex
 10
71962.66449689879
 20
319252.7211149699
 30
0.0
  0
VERTEX
  5
AA3
330
A70
100
AcDbEntity
  8
001_AR
100
AcDbVertex
100
AcDb2dVertex
 10
71962.22686771001
 20
319252.479127695
 30
0.0
  0
VERTEX
  5
AA4
330
A70
100
AcDbEntity
  8
001_AR
100
AcDbVertex
100
AcDb2dVertex
 10
71961.7891937058
 20
319252.2372685787
 30
0.0
  0
VERTEX
  5
AA5
330
A70
100
AcDbEntity
  8
001_AR
100
AcDbVertex
100
AcDb2dVertex
 10
71961.35147354684
 20
319251.9955401202
 30
0.0
  0
VERTEX
  5
AA6
330
A70
100
AcDbEntity
  8
001_AR
100
AcDbVertex
100
AcDb2dVertex
 10
71960.91370589605
 20
319251.7539448199
 30
0.0
  0
VERTEX
  5
AA7
330
A70
100
AcDbEntity
  8
001_AR
100
AcDbVertex
100
AcDb2dVertex
 10
71960.47588941858
 20
319251.5124851786
 30
0.0
  0
VERTEX
  5
AA8
330
A70
100
AcDbEntity
  8
001_AR
100
AcDbVertex
100
AcDb2dVertex
 10
71960.03802278194
 20
319251.2711636978
 30
0.0
  0
VERTEX
  5
AA9
330
A70
100
AcDbEntity
  8
001_AR
100
AcDbVertex
100
AcDb2dVertex
 10
71959.60010465597
 20
319251.0299828805
 30
0.0
  0
VERTEX
  5
AAA
330
A70
100
AcDbEntity
  8
001_AR
100
AcDbVertex
100
AcDb2dVertex
 10
71959.16213371295
 20
319250.7889452299
 30
0.0
  0
VERTEX
  5
AAB
330
A70
100
AcDbEntity
  8
001_AR
100
AcDbVertex
100
AcDb2dVertex
 10
71958.72410862756
 20
319250.5480532503
 30
0.0
  0
VERTEX
  5
AAC
330
A70
100
AcDbEntity
  8
001_AR
100
AcDbVertex
100
AcDb2dVertex
 10
71958.286028077
 20
319250.3073094471
 30
0.0
  0
VERTEX
  5
AAD
330
A70
100
AcDbEntity
  8
001_AR
100
AcDbVertex
100
AcDb2dVertex
 10
71957.84789074103
 20
319250.0667163265
 30
0.0
  0
VERTEX
  5
AAE
330
A70
100
AcDbEntity
  8
001_AR
100
AcDbVertex
100
AcDb2dVertex
 10
71957.40969530191
 20
319249.8262763955
 30
0.0
  0
VERTEX
  5
AAF
330
A70
100
AcDbEntity
  8
001_AR
100
AcDbVertex
100
AcDb2dVertex
 10
71956.97144044459
 20
319249.5859921623
 30
0.0
  0
VERTEX
  5
AB0
330
A70
100
AcDbEntity
  8
001_AR
100
AcDbVertex
100
AcDb2dVertex
 10
71956.53312485668
 20
319249.345866136
 30
0.0
  0
VERTEX
  5
AB1
330
A70
100
AcDbEntity
  8
001_AR
100
AcDbVertex
100
AcDb2dVertex
 10
71956.09474722843
 20
319249.1059008268
 30
0.0
  0
VERTEX
  5
AB2
330
A70
100
AcDbEntity
  8
001_AR
100
AcDbVertex
100
AcDb2dVertex
 10
71955.65630625289
 20
319248.8660987457
 30
0.0
  0
VERTEX
  5
AB3
330
A70
100
AcDbEntity
  8
001_AR
100
AcDbVertex
100
AcDb2dVertex
 10
71955.21780062589
 20
319248.6264624049
 30
0.0
  0
VERTEX
  5
AB4
330
A70
100
AcDbEntity
  8
001_AR
100
AcDbVertex
100
AcDb2dVertex
 10
71954.77922904612
 20
319248.3869943179
 30
0.0
  0
VERTEX
  5
AB5
330
A70
100
AcDbEntity
  8
001_AR
100
AcDbVertex
100
AcDb2dVertex
 10
71954.3405902151
 20
319248.147696999
 30
0.0
  0
VERTEX
  5
AB6
330
A70
100
AcDbEntity
  8
001_AR
100
AcDbVertex
100
AcDb2dVertex
 10
71953.90188283729
 20
319247.9085729636
 30
0.0
  0
VERTEX
  5
AB7
330
A70
100
AcDbEntity
  8
001_AR
100
AcDbVertex
100
AcDb2dVertex
 10
71953.46310562013
 20
319247.6696247287
 30
0.0
  0
VERTEX
  5
AB8
330
A70
100
AcDbEntity
  8
001_AR
100
AcDbVertex
100
AcDb2dVertex
 10
71953.02425727406
 20
319247.4308548117
 30
0.0
  0
VERTEX
  5
AB9
330
A70
100
AcDbEntity
  8
001_AR
100
AcDbVertex
100
AcDb2dVertex
 10
71952.58533651257
 20
319247.192265732
 30
0.0
  0
VERTEX
  5
ABA
330
A70
100
AcDbEntity
  8
001_AR
100
AcDbVertex
100
AcDb2dVertex
 10
71952.14634205222
 20
319246.9538600097
 30
0.0
  0
VERTEX
  5
ABB
330
A70
100
AcDbEntity
  8
001_AR
100
AcDbVertex
100
AcDb2dVertex
 10
71951.70727261275
 20
319246.7156401662
 30
0.0
  0
VERTEX
  5
ABC
330
A70
100
AcDbEntity
  8
001_AR
100
AcDbVertex
100
AcDb2dVertex
 10
71951.26812691706
 20
319246.4776087243
 30
0.0
  0
VERTEX
  5
ABD
330
A70
100
AcDbEntity
  8
001_AR
100
AcDbVertex
100
AcDb2dVertex
 10
71950.82890369126
 20
319246.2397682078
 30
0.0
  0
VERTEX
  5
ABE
330
A70
100
AcDbEntity
  8
001_AR
100
AcDbVertex
100
AcDb2dVertex
 10
71950.38960166476
 20
319246.0021211422
 30
0.0
  0
VERTEX
  5
ABF
330
A70
100
AcDbEntity
  8
001_AR
100
AcDbVertex
100
AcDb2dVertex
 10
71949.95021957025
 20
319245.764670054
 30
0.0
  0
VERTEX
  5
AC0
330
A70
100
AcDbEntity
  8
001_AR
100
AcDbVertex
100
AcDb2dVertex
 10
71949.51075614381
 20
319245.527417471
 30
0.0
  0
VERTEX
  5
AC1
330
A70
100
AcDbEntity
  8
001_AR
100
AcDbVertex
100
AcDb2dVertex
 10
71949.07121012491
 20
319245.2903659225
 30
0.0
  0
VERTEX
  5
AC2
330
A70
100
AcDbEntity
  8
001_AR
100
AcDbVertex
100
AcDb2dVertex
 10
71948.63158025639
 20
319245.0535179391
 30
0.0
  0
VERTEX
  5
AC3
330
A70
100
AcDbEntity
  8
001_AR
100
AcDbVertex
100
AcDb2dVertex
 10
71948.19186528469
 20
319244.816876053
 30
0.0
  0
VERTEX
  5
AC4
330
A70
100
AcDbEntity
  8
001_AR
100
AcDbVertex
100
AcDb2dVertex
 10
71947.75206395972
 20
319244.5804427973
 30
0.0
  0
VERTEX
  5
AC5
330
A70
100
AcDbEntity
  8
001_AR
100
AcDbVertex
100
AcDb2dVertex
 10
71947.31217503496
 20
319244.344220707
 30
0.0
  0
VERTEX
  5
AC6
330
A70
100
AcDbEntity
  8
001_AR
100
AcDbVertex
100
AcDb2dVertex
 10
71946.87219726755
 20
319244.1082123185
 30
0.0
  0
VERTEX
  5
AC7
330
A70
100
AcDbEntity
  8
001_AR
100
AcDbVertex
100
AcDb2dVertex
 10
71946.43212941821
 20
319243.8724201695
 30
0.0
  0
VERTEX
  5
AC8
330
A70
100
AcDbEntity
  8
001_AR
100
AcDbVertex
100
AcDb2dVertex
 10
71945.99197025146
 20
319243.636846799
 30
0.0
  0
VERTEX
  5
AC9
330
A70
100
AcDbEntity
  8
001_AR
100
AcDbVertex
100
AcDb2dVertex
 10
71945.5517185355
 20
319243.4014947482
 30
0.0
  0
VERTEX
  5
ACA
330
A70
100
AcDbEntity
  8
001_AR
100
AcDbVertex
100
AcDb2dVertex
 10
71945.11137304235
 20
319243.166366559
 30
0.0
  0
VERTEX
  5
ACB
330
A70
100
AcDbEntity
  8
001_AR
100
AcDbVertex
100
AcDb2dVertex
 10
71944.67093254786
 20
319242.9314647754
 30
0.0
  0
VERTEX
  5
ACC
330
A70
100
AcDbEntity
  8
001_AR
100
AcDbVertex
100
AcDb2dVertex
 10
71944.23039583178
 20
319242.6967919428
 30
0.0
  0
VERTEX
  5
ACD
330
A70
100
AcDbEntity
  8
001_AR
100
AcDbVertex
100
AcDb2dVertex
 10
71943.78976167776
 20
319242.4623506081
 30
0.0
  0
VERTEX
  5
ACE
330
A70
100
AcDbEntity
  8
001_AR
100
AcDbVertex
100
AcDb2dVertex
 10
71943.34902887343
 20
319242.2281433199
 30
0.0
  0
VERTEX
  5
ACF
330
A70
100
AcDbEntity
  8
001_AR
100
AcDbVertex
100
AcDb2dVertex
 10
71942.90819621045
 20
319241.9941726285
 30
0.0
  0
VERTEX
  5
AD0
330
A70
100
AcDbEntity
  8
001_AR
100
AcDbVertex
100
AcDb2dVertex
 10
71942.4672624845
 20
319241.7604410855
 30
0.0
  0
VERTEX
  5
AD1
330
A70
100
AcDbEntity
  8
001_AR
100
AcDbVertex
100
AcDb2dVertex
 10
71942.02622649539
 20
319241.5269512446
 30
0.0
  0
VERTEX
  5
AD2
330
A70
100
AcDbEntity
  8
001_AR
100
AcDbVertex
100
AcDb2dVertex
 10
71941.58508704707
 20
319241.2937056609
 30
0.0
  0
VERTEX
  5
AD3
330
A70
100
AcDbEntity
  8
001_AR
100
AcDbVertex
100
AcDb2dVertex
 10
71941.1438429477
 20
319241.0607068912
 30
0.0
  0
VERTEX
  5
AD4
330
A70
100
AcDbEntity
  8
001_AR
100
AcDbVertex
100
AcDb2dVertex
 10
71940.70249300963
 20
319240.8279574941
 30
0.0
  0
VERTEX
  5
AD5
330
A70
100
AcDbEntity
  8
001_AR
100
AcDbVertex
100
AcDb2dVertex
 10
71940.26103604952
 20
319240.59546003
 30
0.0
  0
VERTEX
  5
AD6
330
A70
100
AcDbEntity
  8
001_AR
100
AcDbVertex
100
AcDb2dVertex
 10
71939.81947088833
 20
319240.3632170608
 30
0.0
  0
VERTEX
  5
AD7
330
A70
100
AcDbEntity
  8
001_AR
100
AcDbVertex
100
AcDb2dVertex
 10
71939.37779635145
 20
319240.1312311503
 30
0.0
  0
VERTEX
  5
AD8
330
A70
100
AcDbEntity
  8
001_AR
100
AcDbVertex
100
AcDb2dVertex
 10
71938.93601126863
 20
319239.8995048643
 30
0.0
  0
VERTEX
  5
AD9
330
A70
100
AcDbEntity
  8
001_AR
100
AcDbVertex
100
AcDb2dVertex
 10
71938.49411447406
 20
319239.6680407698
 30
0.0
  0
VERTEX
  5
ADA
330
A70
100
AcDbEntity
  8
001_AR
100
AcDbVertex
100
AcDb2dVertex
 10
71938.05210480649
 20
319239.4368414364
 30
0.0
  0
VERTEX
  5
ADB
330
A70
100
AcDbEntity
  8
001_AR
100
AcDbVertex
100
AcDb2dVertex
 10
71937.60998110915
 20
319239.2059094349
 30
0.0
  0
VERTEX
  5
ADC
330
A70
100
AcDbEntity
  8
001_AR
100
AcDbVertex
100
AcDb2dVertex
 10
71937.16774222996
 20
319238.9752473383
 30
0.0
  0
VERTEX
  5
ADD
330
A70
100
AcDbEntity
  8
001_AR
100
AcDbVertex
100
AcDb2dVertex
 10
71936.72538702136
 20
319238.7448577213
 30
0.0
  0
VERTEX
  5
ADE
330
A70
100
AcDbEntity
  8
001_AR
100
AcDbVertex
100
AcDb2dVertex
 10
71936.28291434056
 20
319238.5147431605
 30
0.0
  0
VERTEX
  5
ADF
330
A70
100
AcDbEntity
  8
001_AR
100
AcDbVertex
100
AcDb2dVertex
 10
71935.84032304945
 20
319238.2849062346
 30
0.0
  0
VERTEX
  5
AE0
330
A70
100
AcDbEntity
  8
001_AR
100
AcDbVertex
100
AcDb2dVertex
 10
71935.39761201474
 20
319238.0553495239
 30
0.0
  0
VERTEX
  5
AE1
330
A70
100
AcDbEntity
  8
001_AR
100
AcDbVertex
100
AcDb2dVertex
 10
71934.95478010788
 20
319237.826075611
 30
0.0
  0
VERTEX
  5
AE2
330
A70
100
AcDbEntity
  8
001_AR
100
AcDbVertex
100
AcDb2dVertex
 10
71934.51182620526
 20
319237.5970870799
 30
0.0
 42
-0.0085774757173757
  0
VERTEX
  5
AE3
330
A70
100
AcDbEntity
  8
001_AR
100
AcDbVertex
100
AcDb2dVertex
 10
71910.03763915598
 20
319225.4818975735
 30
0.0
  0
VERTEX
  5
AE4
330
A70
100
AcDbEntity
  8
001_AR
100
AcDbVertex
100
AcDb2dVertex
 10
71909.58695774234
 20
319225.2685195742
 30
0.0
  0
VERTEX
  5
AE5
330
A70
100
AcDbEntity
  8
001_AR
100
AcDbVertex
100
AcDb2dVertex
 10
71909.13612337213
 20
319225.0554116307
 30
0.0
  0
VERTEX
  5
AE6
330
A70
100
AcDbEntity
  8
001_AR
100
AcDbVertex
100
AcDb2dVertex
 10
71908.68513741905
 20
319224.8425712825
 30
0.0
  0
VERTEX
  5
AE7
330
A70
100
AcDbEntity
  8
001_AR
100
AcDbVertex
100
AcDb2dVertex
 10
71908.2340012523
 20
319224.6299960663
 30
0.0
  0
VERTEX
  5
AE8
330
A70
100
AcDbEntity
  8
001_AR
100
AcDbVertex
100
AcDb2dVertex
 10
71907.78271623663
 20
319224.4176835163
 30
0.0
  0
VERTEX
  5
AE9
330
A70
100
AcDbEntity
  8
001_AR
100
AcDbVertex
100
AcDb2dVertex
 10
71907.33128373229
 20
319224.2056311638
 30
0.0
  0
VERTEX
  5
AEA
330
A70
100
AcDbEntity
  8
001_AR
100
AcDbVertex
100
AcDb2dVertex
 10
71906.87970509523
 20
319223.9938365376
 30
0.0
  0
VERTEX
  5
AEB
330
A70
100
AcDbEntity
  8
001_AR
100
AcDbVertex
100
AcDb2dVertex
 10
71906.42798167705
 20
319223.7822971641
 30
0.0
  0
VERTEX
  5
AEC
330
A70
100
AcDbEntity
  8
001_AR
100
AcDbVertex
100
AcDb2dVertex
 10
71905.97611482507
 20
319223.5710105671
 30
0.0
  0
VERTEX
  5
AED
330
A70
100
AcDbEntity
  8
001_AR
100
AcDbVertex
100
AcDb2dVertex
 10
71905.52410588228
 20
319223.3599742676
 30
0.0
  0
VERTEX
  5
AEE
330
A70
100
AcDbEntity
  8
001_AR
100
AcDbVertex
100
AcDb2dVertex
 10
71905.07195618757
 20
319223.1491857844
 30
0.0
  0
VERTEX
  5
AEF
330
A70
100
AcDbEntity
  8
001_AR
100
AcDbVertex
100
AcDb2dVertex
 10
71904.61966707553
 20
319222.9386426337
 30
0.0
  0
VERTEX
  5
AF0
330
A70
100
AcDbEntity
  8
001_AR
100
AcDbVertex
100
AcDb2dVertex
 10
71904.16723987673
 20
319222.7283423292
 30
0.0
  0
VERTEX
  5
AF1
330
A70
100
AcDbEntity
  8
001_AR
100
AcDbVertex
100
AcDb2dVertex
 10
71903.71467591752
 20
319222.5182823822
 30
0.0
  0
VERTEX
  5
AF2
330
A70
100
AcDbEntity
  8
001_AR
100
AcDbVertex
100
AcDb2dVertex
 10
71903.26197652035
 20
319222.3084603017
 30
0.0
  0
VERTEX
  5
AF3
330
A70
100
AcDbEntity
  8
001_AR
100
AcDbVertex
100
AcDb2dVertex
 10
71902.80914300354
 20
319222.0988735942
 30
0.0
  0
VERTEX
  5
AF4
330
A70
100
AcDbEntity
  8
001_AR
100
AcDbVertex
100
AcDb2dVertex
 10
71902.35617668148
 20
319221.8895197639
 30
0.0
  0
VERTEX
  5
AF5
330
A70
100
AcDbEntity
  8
001_AR
100
AcDbVertex
100
AcDb2dVertex
 10
71901.90307886465
 20
319221.6803963126
 30
0.0
  0
VERTEX
  5
AF6
330
A70
100
AcDbEntity
  8
001_AR
100
AcDbVertex
100
AcDb2dVertex
 10
71901.44985085962
 20
319221.4715007399
 30
0.0
  0
VERTEX
  5
AF7
330
A70
100
AcDbEntity
  8
001_AR
100
AcDbVertex
100
AcDb2dVertex
 10
71900.9964939691
 20
319221.2628305431
 30
0.0
  0
VERTEX
  5
AF8
330
A70
100
AcDbEntity
  8
001_AR
100
AcDbVertex
100
AcDb2dVertex
 10
71900.54300949203
 20
319221.0543832172
 30
0.0
  0
VERTEX
  5
AF9
330
A70
100
AcDbEntity
  8
001_AR
100
AcDbVertex
100
AcDb2dVertex
 10
71900.08939872358
 20
319220.8461562549
 30
0.0
  0
VERTEX
  5
AFA
330
A70
100
AcDbEntity
  8
001_AR
100
AcDbVertex
100
AcDb2dVertex
 10
71899.63566295515
 20
319220.6381471468
 30
0.0
  0
VERTEX
  5
AFB
330
A70
100
AcDbEntity
  8
001_AR
100
AcDbVertex
100
AcDb2dVertex
 10
71899.18180347455
 20
319220.4303533813
 30
0.0
  0
VERTEX
  5
AFC
330
A70
100
AcDbEntity
  8
001_AR
100
AcDbVertex
100
AcDb2dVertex
 10
71898.72782156587
 20
319220.2227724446
 30
0.0
  0
VERTEX
  5
AFD
330
A70
100
AcDbEntity
  8
001_AR
100
AcDbVertex
100
AcDb2dVertex
 10
71898.27371850965
 20
319220.0154018209
 30
0.0
  0
VERTEX
  5
AFE
330
A70
100
AcDbEntity
  8
001_AR
100
AcDbVertex
100
AcDb2dVertex
 10
71897.81949558285
 20
319219.808238992
 30
0.0
  0
VERTEX
  5
AFF
330
A70
100
AcDbEntity
  8
001_AR
100
AcDbVertex
100
AcDb2dVertex
 10
71897.36515405893
 20
319219.6012814378
 30
0.0
  0
VERTEX
  5
B00
330
A70
100
AcDbEntity
  8
001_AR
100
AcDbVertex
100
AcDb2dVertex
 10
71896.91069520787
 20
319219.3945266361
 30
0.0
  0
VERTEX
  5
B01
330
A70
100
AcDbEntity
  8
001_AR
100
AcDbVertex
100
AcDb2dVertex
 10
71896.45612029623
 20
319219.1879720629
 30
0.0
  0
VERTEX
  5
B02
330
A70
100
AcDbEntity
  8
001_AR
100
AcDbVertex
100
AcDb2dVertex
 10
71896.00143058717
 20
319218.9816151916
 30
0.0
  0
VERTEX
  5
B03
330
A70
100
AcDbEntity
  8
001_AR
100
AcDbVertex
100
AcDb2dVertex
 10
71895.54662734053
 20
319218.7754534942
 30
0.0
  0
VERTEX
  5
B04
330
A70
100
AcDbEntity
  8
001_AR
100
AcDbVertex
100
AcDb2dVertex
 10
71895.09171181282
 20
319218.5694844404
 30
0.0
  0
VERTEX
  5
B05
330
A70
100
AcDbEntity
  8
001_AR
100
AcDbVertex
100
AcDb2dVertex
 10
71894.63668525731
 20
319218.3637054979
 30
0.0
  0
VERTEX
  5
B06
330
A70
100
AcDbEntity
  8
001_AR
100
AcDbVertex
100
AcDb2dVertex
 10
71894.18154892404
 20
319218.1581141327
 30
0.0
  0
VERTEX
  5
B07
330
A70
100
AcDbEntity
  8
001_AR
100
AcDbVertex
100
AcDb2dVertex
 10
71893.72630405983
 20
319217.9527078087
 30
0.0
  0
VERTEX
  5
B08
330
A70
100
AcDbEntity
  8
001_AR
100
AcDbVertex
100
AcDb2dVertex
 10
71893.27095190847
 20
319217.7474839882
 30
0.0
  0
VERTEX
  5
B09
330
A70
100
AcDbEntity
  8
001_AR
100
AcDbVertex
100
AcDb2dVertex
 10
71892.81549371059
 20
319217.5424401312
 30
0.0
  0
VERTEX
  5
B0A
330
A70
100
AcDbEntity
  8
001_AR
100
AcDbVertex
100
AcDb2dVertex
 10
71892.35993070374
 20
319217.3375736961
 30
0.0
  0
VERTEX
  5
B0B
330
A70
100
AcDbEntity
  8
001_AR
100
AcDbVertex
100
AcDb2dVertex
 10
71891.90426412253
 20
319217.1328821397
 30
0.0
  0
VERTEX
  5
B0C
330
A70
100
AcDbEntity
  8
001_AR
100
AcDbVertex
100
AcDb2dVertex
 10
71891.44849519861
 20
319216.9283629166
 30
0.0
  0
VERTEX
  5
B0D
330
A70
100
AcDbEntity
  8
001_AR
100
AcDbVertex
100
AcDb2dVertex
 10
71890.99262516063
 20
319216.7240134797
 30
0.0
  0
VERTEX
  5
B0E
330
A70
100
AcDbEntity
  8
001_AR
100
AcDbVertex
100
AcDb2dVertex
 10
71890.53665523445
 20
319216.5198312806
 30
0.0
  0
VERTEX
  5
B0F
330
A70
100
AcDbEntity
  8
001_AR
100
AcDbVertex
100
AcDb2dVertex
 10
71890.08058664303
 20
319216.3158137685
 30
0.0
  0
VERTEX
  5
B10
330
A70
100
AcDbEntity
  8
001_AR
100
AcDbVertex
100
AcDb2dVertex
 10
71889.62442060653
 20
319216.1119583915
 30
0.0
  0
VERTEX
  5
B11
330
A70
100
AcDbEntity
  8
001_AR
100
AcDbVertex
100
AcDb2dVertex
 10
71889.16815834247
 20
319215.9082625954
 30
0.0
  0
VERTEX
  5
B12
330
A70
100
AcDbEntity
  8
001_AR
100
AcDbVertex
100
AcDb2dVertex
 10
71888.71180106551
 20
319215.704723825
 30
0.0
  0
VERTEX
  5
B13
330
A70
100
AcDbEntity
  8
001_AR
100
AcDbVertex
100
AcDb2dVertex
 10
71888.25534998777
 20
319215.501339523
 30
0.0
  0
VERTEX
  5
B14
330
A70
100
AcDbEntity
  8
001_AR
100
AcDbVertex
100
AcDb2dVertex
 10
71887.79880631865
 20
319215.2981071305
 30
0.0
  0
VERTEX
  5
B15
330
A70
100
AcDbEntity
  8
001_AR
100
AcDbVertex
100
AcDb2dVertex
 10
71887.34217126506
 20
319215.0950240872
 30
0.0
  0
VERTEX
  5
B16
330
A70
100
AcDbEntity
  8
001_AR
100
AcDbVertex
100
AcDb2dVertex
 10
71886.88544603132
 20
319214.8920878313
 30
0.0
  0
VERTEX
  5
B17
330
A70
100
AcDbEntity
  8
001_AR
100
AcDbVertex
100
AcDb2dVertex
 10
71886.42863181926
 20
319214.6892957991
 30
0.0
  0
VERTEX
  5
B18
330
A70
100
AcDbEntity
  8
001_AR
100
AcDbVertex
100
AcDb2dVertex
 10
71885.97172982827
 20
319214.4866454255
 30
0.0
  0
VERTEX
  5
B19
330
A70
100
AcDbEntity
  8
001_AR
100
AcDbVertex
100
AcDb2dVertex
 10
71885.51474125536
 20
319214.2841341441
 30
0.0
  0
VERTEX
  5
B1A
330
A70
100
AcDbEntity
  8
001_AR
100
AcDbVertex
100
AcDb2dVertex
 10
71885.05766729514
 20
319214.0817593867
 30
0.0
  0
VERTEX
  5
B1B
330
A70
100
AcDbEntity
  8
001_AR
100
AcDbVertex
100
AcDb2dVertex
 10
71884.60050913991
 20
319213.8795185839
 30
0.0
  0
VERTEX
  5
B1C
330
A70
100
AcDbEntity
  8
001_AR
100
AcDbVertex
100
AcDb2dVertex
 10
71884.1432679797
 20
319213.6774091646
 30
0.0
  0
VERTEX
  5
B1D
330
A70
100
AcDbEntity
  8
001_AR
100
AcDbVertex
100
AcDb2dVertex
 10
71883.6859450023
 20
319213.4754285565
 30
0.0
  0
VERTEX
  5
B1E
330
A70
100
AcDbEntity
  8
001_AR
100
AcDbVertex
100
AcDb2dVertex
 10
71883.22854139332
 20
319213.2735741857
 30
0.0
  0
VERTEX
  5
B1F
330
A70
100
AcDbEntity
  8
001_AR
100
AcDbVertex
100
AcDb2dVertex
 10
71882.77105833622
 20
319213.071843477
 30
0.0
  0
VERTEX
  5
B20
330
A70
100
AcDbEntity
  8
001_AR
100
AcDbVertex
100
AcDb2dVertex
 10
71882.31349701235
 20
319212.8702338538
 30
0.0
  0
VERTEX
  5
B21
330
A70
100
AcDbEntity
  8
001_AR
100
AcDbVertex
100
AcDb2dVertex
 10
71881.85585860102
 20
319212.6687427383
 30
0.0
  0
VERTEX
  5
B22
330
A70
100
AcDbEntity
  8
001_AR
100
AcDbVertex
100
AcDb2dVertex
 10
71881.39814427949
 20
319212.4673675513
 30
0.0
  0
VERTEX
  5
B23
330
A70
100
AcDbEntity
  8
001_AR
100
AcDbVertex
100
AcDb2dVertex
 10
71880.94035522309
 20
319212.266105712
 30
0.0
  0
VERTEX
  5
B24
330
A70
100
AcDbEntity
  8
001_AR
100
AcDbVertex
100
AcDb2dVertex
 10
71880.4824926052
 20
319212.0649546389
 30
0.0
  0
VERTEX
  5
B25
330
A70
100
AcDbEntity
  8
001_AR
100
AcDbVertex
100
AcDb2dVertex
 10
71880.02455759733
 20
319211.8639117485
 30
0.0
  0
VERTEX
  5
B26
330
A70
100
AcDbEntity
  8
001_AR
100
AcDbVertex
100
AcDb2dVertex
 10
71879.5665513691
 20
319211.6629744569
 30
0.0
  0
VERTEX
  5
B27
330
A70
100
AcDbEntity
  8
001_AR
100
AcDbVertex
100
AcDb2dVertex
 10
71879.10847508844
 20
319211.4621401783
 30
0.0
  0
VERTEX
  5
B28
330
A70
100
AcDbEntity
  8
001_AR
100
AcDbVertex
100
AcDb2dVertex
 10
71878.65032992136
 20
319211.261406326
 30
0.0
  0
VERTEX
  5
B29
330
A70
100
AcDbEntity
  8
001_AR
100
AcDbVertex
100
AcDb2dVertex
 10
71878.19211703233
 20
319211.0607703121
 30
0.0
  0
VERTEX
  5
B2A
330
A70
100
AcDbEntity
  8
001_AR
100
AcDbVertex
100
AcDb2dVertex
 10
71877.73383758408
 20
319210.8602295474
 30
0.0
  0
VERTEX
  5
B2B
330
A70
100
AcDbEntity
  8
001_AR
100
AcDbVertex
100
AcDb2dVertex
 10
71877.27549273768
 20
319210.6597814417
 30
0.0
  0
VERTEX
  5
B2C
330
A70
100
AcDbEntity
  8
001_AR
100
AcDbVertex
100
AcDb2dVertex
 10
71876.81708365269
 20
319210.4594234038
 30
0.0
  0
VERTEX
  5
B2D
330
A70
100
AcDbEntity
  8
001_AR
100
AcDbVertex
100
AcDb2dVertex
 10
71876.35861148711
 20
319210.259152841
 30
0.0
  0
VERTEX
  5
B2E
330
A70
100
AcDbEntity
  8
001_AR
100
AcDbVertex
100
AcDb2dVertex
 10
71875.90007739745
 20
319210.0589671599
 30
0.0
  0
VERTEX
  5
B2F
330
A70
100
AcDbEntity
  8
001_AR
100
AcDbVertex
100
AcDb2dVertex
 10
71875.44148253878
 20
319209.8588637657
 30
0.0
  0
VERTEX
  5
B30
330
A70
100
AcDbEntity
  8
001_AR
100
AcDbVertex
100
AcDb2dVertex
 10
71874.98282806473
 20
319209.6588400631
 30
0.0
  0
VERTEX
  5
B31
330
A70
100
AcDbEntity
  8
001_AR
100
AcDbVertex
100
AcDb2dVertex
 10
71874.52411512762
 20
319209.4588934551
 30
0.0
  0
VERTEX
  5
B32
330
A70
100
AcDbEntity
  8
001_AR
100
AcDbVertex
100
AcDb2dVertex
 10
71874.06534487847
 20
319209.2590213443
 30
0.0
  0
VERTEX
  5
B33
330
A70
100
AcDbEntity
  8
001_AR
100
AcDbVertex
100
AcDb2dVertex
 10
71873.60651846697
 20
319209.0592211318
 30
0.0
  0
VERTEX
  5
B34
330
A70
100
AcDbEntity
  8
001_AR
100
AcDbVertex
100
AcDb2dVertex
 10
71873.14763704161
 20
319208.8594902181
 30
0.0
  0
VERTEX
  5
B35
330
A70
100
AcDbEntity
  8
001_AR
100
AcDbVertex
100
AcDb2dVertex
 10
71872.68870174972
 20
319208.6598260028
 30
0.0
  0
VERTEX
  5
B36
330
A70
100
AcDbEntity
  8
001_AR
100
AcDbVertex
100
AcDb2dVertex
 10
71872.22971373748
 20
319208.4602258842
 30
0.0
  0
VERTEX
  5
B37
330
A70
100
AcDbEntity
  8
001_AR
100
AcDbVertex
100
AcDb2dVertex
 10
71871.77067414999
 20
319208.2606872601
 30
0.0
  0
VERTEX
  5
B38
330
A70
100
AcDbEntity
  8
001_AR
100
AcDbVertex
100
AcDb2dVertex
 10
71871.31158413124
 20
319208.061207527
 30
0.0
  0
VERTEX
  5
B39
330
A70
100
AcDbEntity
  8
001_AR
100
AcDbVertex
100
AcDb2dVertex
 10
71870.85244482431
 20
319207.8617840811
 30
0.0
  0
VERTEX
  5
B3A
330
A70
100
AcDbEntity
  8
001_AR
100
AcDbVertex
100
AcDb2dVertex
 10
71870.39325737125
 20
319207.6624143173
 30
0.0
  0
VERTEX
  5
B3B
330
A70
100
AcDbEntity
  8
001_AR
100
AcDbVertex
100
AcDb2dVertex
 10
71869.93402291325
 20
319207.4630956297
 30
0.0
  0
VERTEX
  5
B3C
330
A70
100
AcDbEntity
  8
001_AR
100
AcDbVertex
100
AcDb2dVertex
 10
71869.47474259052
 20
319207.2638254119
 30
0.0
  0
VERTEX
  5
B3D
330
A70
100
AcDbEntity
  8
001_AR
100
AcDbVertex
100
AcDb2dVertex
 10
71869.01541754261
 20
319207.0646010564
 30
0.0
  0
VERTEX
  5
B3E
330
A70
100
AcDbEntity
  8
001_AR
100
AcDbVertex
100
AcDb2dVertex
 10
71868.55604890816
 20
319206.8654199551
 30
0.0
  0
VERTEX
  5
B3F
330
A70
100
AcDbEntity
  8
001_AR
100
AcDbVertex
100
AcDb2dVertex
 10
71868.09663782509
 20
319206.6662794991
 30
0.0
  0
VERTEX
  5
B40
330
A70
100
AcDbEntity
  8
001_AR
100
AcDbVertex
100
AcDb2dVertex
 10
71867.63718543066
 20
319206.467177079
 30
0.0
  0
VERTEX
  5
B41
330
A70
100
AcDbEntity
  8
001_AR
100
AcDbVertex
100
AcDb2dVertex
 10
71867.1776928615
 20
319206.2681100841
 30
0.0
  0
VERTEX
  5
B42
330
A70
100
AcDbEntity
  8
001_AR
100
AcDbVertex
100
AcDb2dVertex
 10
71866.71816125353
 20
319206.0690759037
 30
0.0
  0
VERTEX
  5
B43
330
A70
100
AcDbEntity
  8
001_AR
100
AcDbVertex
100
AcDb2dVertex
 10
71866.25859174227
 20
319205.8700719261
 30
0.0
  0
VERTEX
  5
B44
330
A70
100
AcDbEntity
  8
001_AR
100
AcDbVertex
100
AcDb2dVertex
 10
71865.79898546259
 20
319205.6710955388
 30
0.0
  0
VERTEX
  5
B45
330
A70
100
AcDbEntity
  8
001_AR
100
AcDbVertex
100
AcDb2dVertex
 10
71865.33934354894
 20
319205.4721441291
 30
0.0
  0
VERTEX
  5
B46
330
A70
100
AcDbEntity
  8
001_AR
100
AcDbVertex
100
AcDb2dVertex
 10
71864.87966713533
 20
319205.2732150833
 30
0.0
  0
VERTEX
  5
B47
330
A70
100
AcDbEntity
  8
001_AR
100
AcDbVertex
100
AcDb2dVertex
 10
71864.41995735544
 20
319205.0743057873
 30
0.0
  0
VERTEX
  5
B48
330
A70
100
AcDbEntity
  8
001_AR
100
AcDbVertex
100
AcDb2dVertex
 10
71863.96021534252
 20
319204.8754136263
 30
0.0
  0
VERTEX
  5
B49
330
A70
100
AcDbEntity
  8
001_AR
100
AcDbVertex
100
AcDb2dVertex
 10
71863.50044222962
 20
319204.6765359852
 30
0.0
  0
VERTEX
  5
B4A
330
A70
100
AcDbEntity
  8
001_AR
100
AcDbVertex
100
AcDb2dVertex
 10
71863.04063914947
 20
319204.4776702481
 30
0.0
  0
VERTEX
  5
B4B
330
A70
100
AcDbEntity
  8
001_AR
100
AcDbVertex
100
AcDb2dVertex
 10
71862.58080723465
 20
319204.2788137988
 30
0.0
  0
VERTEX
  5
B4C
330
A70
100
AcDbEntity
  8
001_AR
100
AcDbVertex
100
AcDb2dVertex
 10
71862.12094761756
 20
319204.0799640203
 30
0.0
  0
VERTEX
  5
B4D
330
A70
100
AcDbEntity
  8
001_AR
100
AcDbVertex
100
AcDb2dVertex
 10
71861.66106143048
 20
319203.8811182956
 30
0.0
  0
VERTEX
  5
B4E
330
A70
100
AcDbEntity
  8
001_AR
100
AcDbVertex
100
AcDb2dVertex
 10
71861.20114980564
 20
319203.6822740067
 30
0.0
  0
VERTEX
  5
B4F
330
A70
100
AcDbEntity
  8
001_AR
100
AcDbVertex
100
AcDb2dVertex
 10
71860.7412138752
 20
319203.4834285357
 30
0.0
  0
VERTEX
  5
B50
330
A70
100
AcDbEntity
  8
001_AR
100
AcDbVertex
100
AcDb2dVertex
 10
71860.28125477138
 20
319203.2845792639
 30
0.0
  0
VERTEX
  5
B51
330
A70
100
AcDbEntity
  8
001_AR
100
AcDbVertex
100
AcDb2dVertex
 10
71859.8212736265
 20
319203.0857235723
 30
0.0
  0
VERTEX
  5
B52
330
A70
100
AcDbEntity
  8
001_AR
100
AcDbVertex
100
AcDb2dVertex
 10
71803.80420823706
 20
319178.8688977818
 30
0.0
  0
SEQEND
  5
B53
330
A70
100
AcDbEntity
  8
001_AR
  0
POLYLINE
  5
B54
330
1F
100
AcDbEntity
  8
001_AR
100
AcDb2dPolyline
 66
     1
 10
0.0
 20
0.0
 30
0.0
  0
VERTEX
  5
B55
330
B54
100
AcDbEntity
  8
001_AR
100
AcDbVertex
100
AcDb2dVertex
 10
72436.85586000316
 20
319594.8302841295
 30
0.0
 42
-0.0649671083664099
  0
VERTEX
  5
B56
330
B54
100
AcDbEntity
  8
001_AR
100
AcDbVertex
100
AcDb2dVertex
 10
72442.66345252281
 20
319606.3924935439
 30
0.0
  0
VERTEX
  5
B57
330
B54
100
AcDbEntity
  8
001_AR
100
AcDbVertex
100
AcDb2dVertex
 10
72471.39208027158
 20
319648.8178056744
 30
0.0
  0
SEQEND
  5
B58
330
B54
100
AcDbEntity
  8
001_AR
  0
POLYLINE
  5
B59
330
1F
100
AcDbEntity
  8
001_AR
100
AcDb2dPolyline
 66
     1
 10
0.0
 20
0.0
 30
0.0
  0
VERTEX
  5
B5A
330
B59
100
AcDbEntity
  8
001_AR
100
AcDbVertex
100
AcDb2dVertex
 10
72425.8539096874
 20
319710.3993080326
 30
0.0
  0
VERTEX
  5
B5B
330
B59
100
AcDbEntity
  8
001_AR
100
AcDbVertex
100
AcDb2dVertex
 10
72419.41191901988
 20
319703.7507452177
 30
0.0
  0
VERTEX
  5
B5C
330
B59
100
AcDbEntity
  8
001_AR
100
AcDbVertex
100
AcDb2dVertex
 10
72412.69167414609
 20
319692.8103465691
 30
0.0
  0
VERTEX
  5
B5D
330
B59
100
AcDbEntity
  8
001_AR
100
AcDbVertex
100
AcDb2dVertex
 10
72407.39248435375
 20
319687.9739681123
 30
0.0
  0
SEQEND
  5
B5E
330
B59
100
AcDbEntity
  8
001_AR
  0
POLYLINE
  5
B5F
330
1F
100
AcDbEntity
  8
001_AR
100
AcDb2dPolyline
 66
     1
 10
0.0
 20
0.0
 30
0.0
  0
VERTEX
  5
B60
330
B5F
100
AcDbEntity
  8
001_AR
100
AcDbVertex
100
AcDb2dVertex
 10
72409.99442280248
 20
319687.0127105031
 30
0.0
  0
VERTEX
  5
B61
330
B5F
100
AcDbEntity
  8
001_AR
100
AcDbVertex
100
AcDb2dVertex
 10
72416.23141601165
 20
319692.7097043003
 30
0.0
  0
SEQEND
  5
B62
330
B5F
100
AcDbEntity
  8
001_AR
  0
ARC
  5
B63
330
1F
100
AcDbEntity
  8
001_AR
100
AcDbCircle
 10
72416.5686264753
 20
319692.3405307595
 30
0.0
 40
0.5
100
AcDbArc
 50
344.2088087787895
 51
132.4091980163053
  0
POLYLINE
  5
B64
330
1F
100
AcDbEntity
  8
001_AR
100
AcDb2dPolyline
 66
     1
 10
0.0
 20
0.0
 30
0.0
  0
VERTEX
  5
B65
330
B64
100
AcDbEntity
  8
001_AR
100
AcDbVertex
100
AcDb2dVertex
 10
72072.90766368009
 20
319304.3473049027
 30
0.0
  0
VERTEX
  5
B66
330
B64
100
AcDbEntity
  8
001_AR
100
AcDbVertex
100
AcDb2dVertex
 10
72067.03248579742
 20
319301.2416649284
 30
0.0
 42
0.0066667535990249
  0
SEQEND
  5
B67
330
B64
100
AcDbEntity
  8
001_AR
  0
ARC
  5
B68
330
1F
100
AcDbEntity
  8
001_AR
100
AcDbCircle
 10
72074.91017072671
 20
319300.5590083817
 30
0.0
 40
4.285
100
AcDbArc
 50
296.4456249463075
 51
117.8610898694859
  0
ARC
  5
B69
330
1F
100
AcDbEntity
  8
001_AR
100
AcDbCircle
 10
72091.67686020834
 20
319307.4637705955
 30
0.0
 40
3.0
100
AcDbArc
 50
153.210898055694
 51
296.4463009071726
  0
ARC
  5
B6A
330
1F
100
AcDbEntity
  8
001_AR
100
AcDbCircle
 10
72101.49624739402
 20
319302.5059852736
 30
0.0
 40
13.87
100
AcDbArc
 50
110.3205622085871
 51
153.210898055694
  0
POLYLINE
  5
B6B
330
1F
100
AcDbEntity
  8
P_SV_SB_ACHS_01_1
 48
0.1
100
AcDb2dPolyline
 66
     1
 10
0.0
 20
0.0
 30
0.0
 70
   128
1001
ACHSE_01_vzd
1000
Long_Axes
1001
LONG_AXIS
1000
ACHSE_01
  0
VERTEX
  5
B6C
330
B6B
100
AcDbEntity
  8
P_SV_SB_ACHS_01_1
100
AcDbVertex
100
AcDb2dVertex
 10
72639.37462826336
 20
319835.3852411438
 30
0.0
  0
VERTEX
  5
B6D
330
B6B
100
AcDbEntity
  8
P_SV_SB_ACHS_01_1
100
AcDbVertex
100
AcDb2dVertex
 10
72634.03311648208
 20
319832.6524308888
 30
0.0
  0
VERTEX
  5
B6E
330
B6B
100
AcDbEntity
  8
P_SV_SB_ACHS_01_1
100
AcDbVertex
100
AcDb2dVertex
 10
72616.22807721113
 20
319823.5430633717
 30
0.0
  0
VERTEX
  5
B6F
330
B6B
100
AcDbEntity
  8
P_SV_SB_ACHS_01_1
100
AcDbVertex
100
AcDb2dVertex
 10
72605.09847822906
 20
319817.8489671161
 30
0.0
  0
VERTEX
  5
B70
330
B6B
100
AcDbEntity
  8
P_SV_SB_ACHS_01_1
100
AcDbVertex
100
AcDb2dVertex
 10
72604.20265567478
 20
319817.3906402514
 30
0.0
  0
VERTEX
  5
B71
330
B6B
100
AcDbEntity
  8
P_SV_SB_ACHS_01_1
100
AcDbVertex
100
AcDb2dVertex
 10
72603.3068537475
 20
319816.9322730727
 30
0.0
  0
VERTEX
  5
B72
330
B6B
100
AcDbEntity
  8
P_SV_SB_ACHS_01_1
100
AcDbVertex
100
AcDb2dVertex
 10
72602.41109307973
 20
319816.4738252691
 30
0.0
  0
VERTEX
  5
B73
330
B6B
100
AcDbEntity
  8
P_SV_SB_ACHS_01_1
100
AcDbVertex
100
AcDb2dVertex
 10
72601.51539431479
 20
319816.0152565347
 30
0.0
  0
VERTEX
  5
B74
330
B6B
100
AcDbEntity
  8
P_SV_SB_ACHS_01_1
100
AcDbVertex
100
AcDb2dVertex
 10
72600.61977811234
 20
319815.5565265725
 30
0.0
  0
VERTEX
  5
B75
330
B6B
100
AcDbEntity
  8
P_SV_SB_ACHS_01_1
100
AcDbVertex
100
AcDb2dVertex
 10
72599.72426515385
 20
319815.0975950964
 30
0.0
  0
VERTEX
  5
B76
330
B6B
100
AcDbEntity
  8
P_SV_SB_ACHS_01_1
100
AcDbVertex
100
AcDb2dVertex
 10
72598.82887614793
 20
319814.6384218343
 30
0.0
  0
VERTEX
  5
B77
330
B6B
100
AcDbEntity
  8
P_SV_SB_ACHS_01_1
100
AcDbVertex
100
AcDb2dVertex
 10
72597.93363183589
 20
319814.1789665309
 30
0.0
  0
VERTEX
  5
B78
330
B6B
100
AcDbEntity
  8
P_SV_SB_ACHS_01_1
100
AcDbVertex
100
AcDb2dVertex
 10
72597.03855299702
 20
319813.7191889503
 30
0.0
  0
VERTEX
  5
B79
330
B6B
100
AcDbEntity
  8
P_SV_SB_ACHS_01_1
100
AcDbVertex
100
AcDb2dVertex
 10
72596.14366045417
 20
319813.2590488792
 30
0.0
  0
VERTEX
  5
B7A
330
B6B
100
AcDbEntity
  8
P_SV_SB_ACHS_01_1
100
AcDbVertex
100
AcDb2dVertex
 10
72595.24897507906
 20
319812.7985061292
 30
0.0
  0
VERTEX
  5
B7B
330
B6B
100
AcDbEntity
  8
P_SV_SB_ACHS_01_1
100
AcDbVertex
100
AcDb2dVertex
 10
72594.35451779775
 20
319812.3375205405
 30
0.0
  0
VERTEX
  5
B7C
330
B6B
100
AcDbEntity
  8
P_SV_SB_ACHS_01_1
100
AcDbVertex
100
AcDb2dVertex
 10
72593.46030959601
 20
319811.8760519836
 30
0.0
  0
VERTEX
  5
B7D
330
B6B
100
AcDbEntity
  8
P_SV_SB_ACHS_01_1
100
AcDbVertex
100
AcDb2dVertex
 10
72592.56637152478
 20
319811.4140603632
 30
0.0
  0
VERTEX
  5
B7E
330
B6B
100
AcDbEntity
  8
P_SV_SB_ACHS_01_1
100
AcDbVertex
100
AcDb2dVertex
 10
72591.67272470548
 20
319810.9515056203
 30
0.0
  0
VERTEX
  5
B7F
330
B6B
100
AcDbEntity
  8
P_SV_SB_ACHS_01_1
100
AcDbVertex
100
AcDb2dVertex
 10
72590.77939033546
 20
319810.4883477357
 30
0.0
  0
VERTEX
  5
B80
330
B6B
100
AcDbEntity
  8
P_SV_SB_ACHS_01_1
100
AcDbVertex
100
AcDb2dVertex
 10
72589.88638969336
 20
319810.0245467327
 30
0.0
  0
VERTEX
  5
B81
330
B6B
100
AcDbEntity
  8
P_SV_SB_ACHS_01_1
100
AcDbVertex
100
AcDb2dVertex
 10
72588.99374414446
 20
319809.5600626797
 30
0.0
  0
VERTEX
  5
B82
330
B6B
100
AcDbEntity
  8
P_SV_SB_ACHS_01_1
100
AcDbVertex
100
AcDb2dVertex
 10
72588.10147514606
 20
319809.0948556938
 30
0.0
  0
VERTEX
  5
B83
330
B6B
100
AcDbEntity
  8
P_SV_SB_ACHS_01_1
100
AcDbVertex
100
AcDb2dVertex
 10
72587.2096042528
 20
319808.6288859432
 30
0.0
  0
VERTEX
  5
B84
330
B6B
100
AcDbEntity
  8
P_SV_SB_ACHS_01_1
100
AcDbVertex
100
AcDb2dVertex
 10
72586.31815312202
 20
319808.1621136503
 30
0.0
  0
VERTEX
  5
B85
330
B6B
100
AcDbEntity
  8
P_SV_SB_ACHS_01_1
100
AcDbVertex
100
AcDb2dVertex
 10
72585.42714351906
 20
319807.6944990952
 30
0.0
  0
VERTEX
  5
B86
330
B6B
100
AcDbEntity
  8
P_SV_SB_ACHS_01_1
100
AcDbVertex
100
AcDb2dVertex
 10
72584.53659732259
 20
319807.226002618
 30
0.0
  0
VERTEX
  5
B87
330
B6B
100
AcDbEntity
  8
P_SV_SB_ACHS_01_1
100
AcDbVertex
100
AcDb2dVertex
 10
72583.64653652985
 20
319806.7565846223
 30
0.0
  0
VERTEX
  5
B88
330
B6B
100
AcDbEntity
  8
P_SV_SB_ACHS_01_1
100
AcDbVertex
100
AcDb2dVertex
 10
72582.75698326204
 20
319806.2862055785
 30
0.0
  0
VERTEX
  5
B89
330
B6B
100
AcDbEntity
  8
P_SV_SB_ACHS_01_1
100
AcDbVertex
100
AcDb2dVertex
 10
72581.86795976945
 20
319805.8148260263
 30
0.0
  0
VERTEX
  5
B8A
330
B6B
100
AcDbEntity
  8
P_SV_SB_ACHS_01_1
100
AcDbVertex
100
AcDb2dVertex
 10
72580.97948843682
 20
319805.3424065783
 30
0.0
  0
VERTEX
  5
B8B
330
B6B
100
AcDbEntity
  8
P_SV_SB_ACHS_01_1
100
AcDbVertex
100
AcDb2dVertex
 10
72580.09159178849
 20
319804.8689079232
 30
0.0
  0
VERTEX
  5
B8C
330
B6B
100
AcDbEntity
  8
P_SV_SB_ACHS_01_1
100
AcDbVertex
100
AcDb2dVertex
 10
72579.20429249367
 20
319804.3942908288
 30
0.0
  0
VERTEX
  5
B8D
330
B6B
100
AcDbEntity
  8
P_SV_SB_ACHS_01_1
100
AcDbVertex
100
AcDb2dVertex
 10
72578.31761337163
 20
319803.9185161452
 30
0.0
  0
VERTEX
  5
B8E
330
B6B
100
AcDbEntity
  8
P_SV_SB_ACHS_01_1
100
AcDbVertex
100
AcDb2dVertex
 10
72577.43157739684
 20
319803.4415448084
 30
0.0
  0
VERTEX
  5
B8F
330
B6B
100
AcDbEntity
  8
P_SV_SB_ACHS_01_1
100
AcDbVertex
100
AcDb2dVertex
 10
72576.54620770416
 20
319802.9633378433
 30
0.0
  0
VERTEX
  5
B90
330
B6B
100
AcDbEntity
  8
P_SV_SB_ACHS_01_1
100
AcDbVertex
100
AcDb2dVertex
 10
72575.66152759398
 20
319802.4838563672
 30
0.0
  0
VERTEX
  5
B91
330
B6B
100
AcDbEntity
  8
P_SV_SB_ACHS_01_1
100
AcDbVertex
100
AcDb2dVertex
 10
72574.77756053734
 20
319802.0030615932
 30
0.0
  0
VERTEX
  5
B92
330
B6B
100
AcDbEntity
  8
P_SV_SB_ACHS_01_1
100
AcDbVertex
100
AcDb2dVertex
 10
72573.89433018097
 20
319801.5209148334
 30
0.0
  0
VERTEX
  5
B93
330
B6B
100
AcDbEntity
  8
P_SV_SB_ACHS_01_1
100
AcDbVertex
100
AcDb2dVertex
 10
72573.01186035243
 20
319801.0373775028
 30
0.0
  0
VERTEX
  5
B94
330
B6B
100
AcDbEntity
  8
P_SV_SB_ACHS_01_1
100
AcDbVertex
100
AcDb2dVertex
 10
72572.13017506513
 20
319800.5524111223
 30
0.0
  0
VERTEX
  5
B95
330
B6B
100
AcDbEntity
  8
P_SV_SB_ACHS_01_1
100
AcDbVertex
100
AcDb2dVertex
 10
72571.24929852334
 20
319800.0659773225
 30
0.0
  0
VERTEX
  5
B96
330
B6B
100
AcDbEntity
  8
P_SV_SB_ACHS_01_1
100
AcDbVertex
100
AcDb2dVertex
 10
72570.36925512721
 20
319799.5780378474
 30
0.0
  0
VERTEX
  5
B97
330
B6B
100
AcDbEntity
  8
P_SV_SB_ACHS_01_1
100
AcDbVertex
100
AcDb2dVertex
 10
72569.49006947771
 20
319799.0885545578
 30
0.0
  0
VERTEX
  5
B98
330
B6B
100
AcDbEntity
  8
P_SV_SB_ACHS_01_1
100
AcDbVertex
100
AcDb2dVertex
 10
72568.61176638162
 20
319798.597489435
 30
0.0
  0
VERTEX
  5
B99
330
B6B
100
AcDbEntity
  8
P_SV_SB_ACHS_01_1
100
AcDbVertex
100
AcDb2dVertex
 10
72567.73437085638
 20
319798.1048045847
 30
0.0
  0
VERTEX
  5
B9A
330
B6B
100
AcDbEntity
  8
P_SV_SB_ACHS_01_1
100
AcDbVertex
100
AcDb2dVertex
 10
72566.85790813506
 20
319797.6104622406
 30
0.0
  0
VERTEX
  5
B9B
330
B6B
100
AcDbEntity
  8
P_SV_SB_ACHS_01_1
100
AcDbVertex
100
AcDb2dVertex
 10
72565.98240367112
 20
319797.1144247682
 30
0.0
  0
VERTEX
  5
B9C
330
B6B
100
AcDbEntity
  8
P_SV_SB_ACHS_01_1
100
AcDbVertex
100
AcDb2dVertex
 10
72565.10788314333
 20
319796.6166546688
 30
0.0
  0
VERTEX
  5
B9D
330
B6B
100
AcDbEntity
  8
P_SV_SB_ACHS_01_1
100
AcDbVertex
100
AcDb2dVertex
 10
72564.23437246047
 20
319796.1171145835
 30
0.0
  0
VERTEX
  5
B9E
330
B6B
100
AcDbEntity
  8
P_SV_SB_ACHS_01_1
100
AcDbVertex
100
AcDb2dVertex
 10
72563.36189776618
 20
319795.6157672966
 30
0.0
  0
VERTEX
  5
B9F
330
B6B
100
AcDbEntity
  8
P_SV_SB_ACHS_01_1
100
AcDbVertex
100
AcDb2dVertex
 10
72562.49048544361
 20
319795.1125757404
 30
0.0
  0
VERTEX
  5
BA0
330
B6B
100
AcDbEntity
  8
P_SV_SB_ACHS_01_1
100
AcDbVertex
100
AcDb2dVertex
 10
72561.62016212019
 20
319794.6075029986
 30
0.0
  0
VERTEX
  5
BA1
330
B6B
100
AcDbEntity
  8
P_SV_SB_ACHS_01_1
100
AcDbVertex
100
AcDb2dVertex
 10
72560.75095467219
 20
319794.100512311
 30
0.0
  0
VERTEX
  5
BA2
330
B6B
100
AcDbEntity
  8
P_SV_SB_ACHS_01_1
100
AcDbVertex
100
AcDb2dVertex
 10
72559.88289022939
 20
319793.5915670771
 30
0.0
  0
VERTEX
  5
BA3
330
B6B
100
AcDbEntity
  8
P_SV_SB_ACHS_01_1
100
AcDbVertex
100
AcDb2dVertex
 10
72559.0159961797
 20
319793.0806308609
 30
0.0
  0
VERTEX
  5
BA4
330
B6B
100
AcDbEntity
  8
P_SV_SB_ACHS_01_1
100
AcDbVertex
100
AcDb2dVertex
 10
72558.15030017362
 20
319792.5676673945
 30
0.0
  0
VERTEX
  5
BA5
330
B6B
100
AcDbEntity
  8
P_SV_SB_ACHS_01_1
100
AcDbVertex
100
AcDb2dVertex
 10
72557.28583012883
 20
319792.0526405833
 30
0.0
  0
VERTEX
  5
BA6
330
B6B
100
AcDbEntity
  8
P_SV_SB_ACHS_01_1
100
AcDbVertex
100
AcDb2dVertex
 10
72556.42261423453
 20
319791.5355145097
 30
0.0
  0
VERTEX
  5
BA7
330
B6B
100
AcDbEntity
  8
P_SV_SB_ACHS_01_1
100
AcDbVertex
100
AcDb2dVertex
 10
72555.56068095596
 20
319791.016253438
 30
0.0
  0
VERTEX
  5
BA8
330
B6B
100
AcDbEntity
  8
P_SV_SB_ACHS_01_1
100
AcDbVertex
100
AcDb2dVertex
 10
72554.70005903873
 20
319790.4948218184
 30
0.0
  0
VERTEX
  5
BA9
330
B6B
100
AcDbEntity
  8
P_SV_SB_ACHS_01_1
100
AcDbVertex
100
AcDb2dVertex
 10
72553.84077751321
 20
319789.9711842925
 30
0.0
  0
VERTEX
  5
BAA
330
B6B
100
AcDbEntity
  8
P_SV_SB_ACHS_01_1
100
AcDbVertex
100
AcDb2dVertex
 10
72552.98286569867
 20
319789.4453056968
 30
0.0
  0
VERTEX
  5
BAB
330
B6B
100
AcDbEntity
  8
P_SV_SB_ACHS_01_1
100
AcDbVertex
100
AcDb2dVertex
 10
72552.12635320767
 20
319788.9171510684
 30
0.0
  0
VERTEX
  5
BAC
330
B6B
100
AcDbEntity
  8
P_SV_SB_ACHS_01_1
100
AcDbVertex
100
AcDb2dVertex
 10
72551.27126995017
 20
319788.3866856492
 30
0.0
  0
VERTEX
  5
BAD
330
B6B
100
AcDbEntity
  8
P_SV_SB_ACHS_01_1
100
AcDbVertex
100
AcDb2dVertex
 10
72550.41764613768
 20
319787.8538748909
 30
0.0
  0
VERTEX
  5
BAE
330
B6B
100
AcDbEntity
  8
P_SV_SB_ACHS_01_1
100
AcDbVertex
100
AcDb2dVertex
 10
72549.56551228731
 20
319787.3186844601
 30
0.0
  0
VERTEX
  5
BAF
330
B6B
100
AcDbEntity
  8
P_SV_SB_ACHS_01_1
100
AcDbVertex
100
AcDb2dVertex
 10
72548.71489922591
 20
319786.7810802428
 30
0.0
  0
VERTEX
  5
BB0
330
B6B
100
AcDbEntity
  8
P_SV_SB_ACHS_01_1
100
AcDbVertex
100
AcDb2dVertex
 10
72547.8658380939
 20
319786.24102835
 30
0.0
  0
VERTEX
  5
BB1
330
B6B
100
AcDbEntity
  8
P_SV_SB_ACHS_01_1
100
AcDbVertex
100
AcDb2dVertex
 10
72547.01836034933
 20
319785.6984951224
 30
0.0
  0
VERTEX
  5
BB2
330
B6B
100
AcDbEntity
  8
P_SV_SB_ACHS_01_1
100
AcDbVertex
100
AcDb2dVertex
 10
72546.1724977717
 20
319785.1534471357
 30
0.0
  0
VERTEX
  5
BB3
330
B6B
100
AcDbEntity
  8
P_SV_SB_ACHS_01_1
100
AcDbVertex
100
AcDb2dVertex
 10
72545.32828246572
 20
319784.605851206
 30
0.0
  0
VERTEX
  5
BB4
330
B6B
100
AcDbEntity
  8
P_SV_SB_ACHS_01_1
100
AcDbVertex
100
AcDb2dVertex
 10
72544.48574686515
 20
319784.0556743948
 30
0.0
  0
VERTEX
  5
BB5
330
B6B
100
AcDbEntity
  8
P_SV_SB_ACHS_01_1
100
AcDbVertex
100
AcDb2dVertex
 10
72543.64492373643
 20
319783.5028840145
 30
0.0
  0
VERTEX
  5
BB6
330
B6B
100
AcDbEntity
  8
P_SV_SB_ACHS_01_1
100
AcDbVertex
100
AcDb2dVertex
 10
72542.80584618236
 20
319782.9474476341
 30
0.0
  0
VERTEX
  5
BB7
330
B6B
100
AcDbEntity
  8
P_SV_SB_ACHS_01_1
100
AcDbVertex
100
AcDb2dVertex
 10
72541.96854764564
 20
319782.3893330845
 30
0.0
  0
VERTEX
  5
BB8
330
B6B
100
AcDbEntity
  8
P_SV_SB_ACHS_01_1
100
AcDbVertex
100
AcDb2dVertex
 10
72541.13306191231
 20
319781.828508464
 30
0.0
  0
VERTEX
  5
BB9
330
B6B
100
AcDbEntity
  8
P_SV_SB_ACHS_01_1
100
AcDbVertex
100
AcDb2dVertex
 10
72540.29942311537
 20
319781.2649421442
 30
0.0
  0
VERTEX
  5
BBA
330
B6B
100
AcDbEntity
  8
P_SV_SB_ACHS_01_1
100
AcDbVertex
100
AcDb2dVertex
 10
72539.46766573792
 20
319780.6986027758
 30
0.0
  0
VERTEX
  5
BBB
330
B6B
100
AcDbEntity
  8
P_SV_SB_ACHS_01_1
100
AcDbVertex
100
AcDb2dVertex
 10
72538.63782461661
 20
319780.1294592939
 30
0.0
  0
VERTEX
  5
BBC
330
B6B
100
AcDbEntity
  8
P_SV_SB_ACHS_01_1
100
AcDbVertex
100
AcDb2dVertex
 10
72537.80993494486
 20
319779.5574809245
 30
0.0
  0
VERTEX
  5
BBD
330
B6B
100
AcDbEntity
  8
P_SV_SB_ACHS_01_1
100
AcDbVertex
100
AcDb2dVertex
 10
72536.98403227594
 20
319778.9826371903
 30
0.0
  0
VERTEX
  5
BBE
330
B6B
100
AcDbEntity
  8
P_SV_SB_ACHS_01_1
100
AcDbVertex
100
AcDb2dVertex
 10
72536.16015252612
 20
319778.4048979164
 30
0.0
  0
VERTEX
  5
BBF
330
B6B
100
AcDbEntity
  8
P_SV_SB_ACHS_01_1
100
AcDbVertex
100
AcDb2dVertex
 10
72535.33833197767
 20
319777.8242332371
 30
0.0
  0
VERTEX
  5
BC0
330
B6B
100
AcDbEntity
  8
P_SV_SB_ACHS_01_1
100
AcDbVertex
100
AcDb2dVertex
 10
72534.51860728177
 20
319777.2406136013
 30
0.0
  0
VERTEX
  5
BC1
330
B6B
100
AcDbEntity
  8
P_SV_SB_ACHS_01_1
100
AcDbVertex
100
AcDb2dVertex
 10
72533.70101546135
 20
319776.6540097794
 30
0.0
  0
VERTEX
  5
BC2
330
B6B
100
AcDbEntity
  8
P_SV_SB_ACHS_01_1
100
AcDbVertex
100
AcDb2dVertex
 10
72532.88559391389
 20
319776.0643928694
 30
0.0
  0
VERTEX
  5
BC3
330
B6B
100
AcDbEntity
  8
P_SV_SB_ACHS_01_1
100
AcDbVertex
100
AcDb2dVertex
 10
72532.0723804141
 20
319775.4717343033
 30
0.0
  0
VERTEX
  5
BC4
330
B6B
100
AcDbEntity
  8
P_SV_SB_ACHS_01_1
100
AcDbVertex
100
AcDb2dVertex
 10
72531.26141311653
 20
319774.8760058536
 30
0.0
  0
VERTEX
  5
BC5
330
B6B
100
AcDbEntity
  8
P_SV_SB_ACHS_01_1
100
AcDbVertex
100
AcDb2dVertex
 10
72530.45273055809
 20
319774.2771796399
 30
0.0
 42
0.1158600650401651
  0
VERTEX
  5
BC6
330
B6B
100
AcDbEntity
  8
P_SV_SB_ACHS_01_1
100
AcDbVertex
100
AcDb2dVertex
 10
72453.78477134078
 20
319683.3989081324
 30
0.0
  0
VERTEX
  5
BC7
330
B6B
100
AcDbEntity
  8
P_SV_SB_ACHS_01_1
100
AcDbVertex
100
AcDb2dVertex
 10
72453.33350730263
 20
319682.5065183331
 30
0.0
  0
VERTEX
  5
BC8
330
B6B
100
AcDbEntity
  8
P_SV_SB_ACHS_01_1
100
AcDbVertex
100
AcDb2dVertex
 10
72452.88562594815
 20
319681.6124259913
 30
0.0
  0
VERTEX
  5
BC9
330
B6B
100
AcDbEntity
  8
P_SV_SB_ACHS_01_1
100
AcDbVertex
100
AcDb2dVertex
 10
72452.44108069673
 20
319680.7166702323
 30
0.0
  0
VERTEX
  5
BCA
330
B6B
100
AcDbEntity
  8
P_SV_SB_ACHS_01_1
100
AcDbVertex
100
AcDb2dVertex
 10
72451.99982462608
 20
319679.8192896126
 30
0.0
  0
VERTEX
  5
BCB
330
B6B
100
AcDbEntity
  8
P_SV_SB_ACHS_01_1
100
AcDbVertex
100
AcDb2dVertex
 10
72451.56181048112
 20
319678.9203221266
 30
0.0
  0
VERTEX
  5
BCC
330
B6B
100
AcDbEntity
  8
P_SV_SB_ACHS_01_1
100
AcDbVertex
100
AcDb2dVertex
 10
72451.12699068288
 20
319678.0198052139
 30
0.0
  0
VERTEX
  5
BCD
330
B6B
100
AcDbEntity
  8
P_SV_SB_ACHS_01_1
100
AcDbVertex
100
AcDb2dVertex
 10
72450.69531733704
 20
319677.1177757665
 30
0.0
  0
VERTEX
  5
BCE
330
B6B
100
AcDbEntity
  8
P_SV_SB_ACHS_01_1
100
AcDbVertex
100
AcDb2dVertex
 10
72450.26674224242
 20
319676.2142701364
 30
0.0
  0
VERTEX
  5
BCF
330
B6B
100
AcDbEntity
  8
P_SV_SB_ACHS_01_1
100
AcDbVertex
100
AcDb2dVertex
 10
72449.84121689931
 20
319675.3093241431
 30
0.0
  0
VERTEX
  5
BD0
330
B6B
100
AcDbEntity
  8
P_SV_SB_ACHS_01_1
100
AcDbVertex
100
AcDb2dVertex
 10
72449.41869251753
 20
319674.4029730808
 30
0.0
  0
VERTEX
  5
BD1
330
B6B
100
AcDbEntity
  8
P_SV_SB_ACHS_01_1
100
AcDbVertex
100
AcDb2dVertex
 10
72448.99912002458
 20
319673.4952517268
 30
0.0
  0
VERTEX
  5
BD2
330
B6B
100
AcDbEntity
  8
P_SV_SB_ACHS_01_1
100
AcDbVertex
100
AcDb2dVertex
 10
72448.58245007343
 20
319672.5861943487
 30
0.0
  0
VERTEX
  5
BD3
330
B6B
100
AcDbEntity
  8
P_SV_SB_ACHS_01_1
100
AcDbVertex
100
AcDb2dVertex
 10
72448.1686330502
 20
319671.6758347125
 30
0.0
  0
VERTEX
  5
BD4
330
B6B
100
AcDbEntity
  8
P_SV_SB_ACHS_01_1
100
AcDbVertex
100
AcDb2dVertex
 10
72447.75761908178
 20
319670.7642060909
 30
0.0
  0
VERTEX
  5
BD5
330
B6B
100
AcDbEntity
  8
P_SV_SB_ACHS_01_1
100
AcDbVertex
100
AcDb2dVertex
 10
72447.34935804324
 20
319669.8513412705
 30
0.0
  0
VERTEX
  5
BD6
330
B6B
100
AcDbEntity
  8
P_SV_SB_ACHS_01_1
100
AcDbVertex
100
AcDb2dVertex
 10
72446.94379956512
 20
319668.9372725609
 30
0.0
  0
VERTEX
  5
BD7
330
B6B
100
AcDbEntity
  8
P_SV_SB_ACHS_01_1
100
AcDbVertex
100
AcDb2dVertex
 10
72446.54089304061
 20
319668.0220318022
 30
0.0
  0
VERTEX
  5
BD8
330
B6B
100
AcDbEntity
  8
P_SV_SB_ACHS_01_1
100
AcDbVertex
100
AcDb2dVertex
 10
72446.14058763248
 20
319667.1056503741
 30
0.0
  0
VERTEX
  5
BD9
330
B6B
100
AcDbEntity
  8
P_SV_SB_ACHS_01_1
100
AcDbVertex
100
AcDb2dVertex
 10
72445.74283228005
 20
319666.1881592032
 30
0.0
  0
VERTEX
  5
BDA
330
B6B
100
AcDbEntity
  8
P_SV_SB_ACHS_01_1
100
AcDbVertex
100
AcDb2dVertex
 10
72445.3475757059
 20
319665.2695887722
 30
0.0
  0
VERTEX
  5
BDB
330
B6B
100
AcDbEntity
  8
P_SV_SB_ACHS_01_1
100
AcDbVertex
100
AcDb2dVertex
 10
72444.95476642252
 20
319664.3499691286
 30
0.0
  0
VERTEX
  5
BDC
330
B6B
100
AcDbEntity
  8
P_SV_SB_ACHS_01_1
100
AcDbVertex
100
AcDb2dVertex
 10
72444.56435273873
 20
319663.4293298922
 30
0.0
  0
VERTEX
  5
BDD
330
B6B
100
AcDbEntity
  8
P_SV_SB_ACHS_01_1
100
AcDbVertex
100
AcDb2dVertex
 10
72444.17628276615
 20
319662.5077002652
 30
0.0
  0
VERTEX
  5
BDE
330
B6B
100
AcDbEntity
  8
P_SV_SB_ACHS_01_1
100
AcDbVertex
100
AcDb2dVertex
 10
72443.79050442537
 20
319661.5851090398
 30
0.0
  0
VERTEX
  5
BDF
330
B6B
100
AcDbEntity
  8
P_SV_SB_ACHS_01_1
100
AcDbVertex
100
AcDb2dVertex
 10
72443.40696545217
 20
319660.6615846073
 30
0.0
  0
VERTEX
  5
BE0
330
B6B
100
AcDbEntity
  8
P_SV_SB_ACHS_01_1
100
AcDbVertex
100
AcDb2dVertex
 10
72443.02561340341
 20
319659.7371549671
 30
0.0
  0
VERTEX
  5
BE1
330
B6B
100
AcDbEntity
  8
P_SV_SB_ACHS_01_1
100
AcDbVertex
100
AcDb2dVertex
 10
72442.64639566306
 20
319658.8118477354
 30
0.0
  0
VERTEX
  5
BE2
330
B6B
100
AcDbEntity
  8
P_SV_SB_ACHS_01_1
100
AcDbVertex
100
AcDb2dVertex
 10
72442.26925944787
 20
319657.8856901544
 30
0.0
  0
VERTEX
  5
BE3
330
B6B
100
AcDbEntity
  8
P_SV_SB_ACHS_01_1
100
AcDbVertex
100
AcDb2dVertex
 10
72441.89415181314
 20
319656.9587091009
 30
0.0
  0
VERTEX
  5
BE4
330
B6B
100
AcDbEntity
  8
P_SV_SB_ACHS_01_1
100
AcDbVertex
100
AcDb2dVertex
 10
72441.52101965826
 20
319656.0309310955
 30
0.0
  0
VERTEX
  5
BE5
330
B6B
100
AcDbEntity
  8
P_SV_SB_ACHS_01_1
100
AcDbVertex
100
AcDb2dVertex
 10
72441.14980973216
 20
319655.1023823119
 30
0.0
  0
VERTEX
  5
BE6
330
B6B
100
AcDbEntity
  8
P_SV_SB_ACHS_01_1
100
AcDbVertex
100
AcDb2dVertex
 10
72440.78046863865
 20
319654.1730885859
 30
0.0
  0
VERTEX
  5
BE7
330
B6B
100
AcDbEntity
  8
P_SV_SB_ACHS_01_1
100
AcDbVertex
100
AcDb2dVertex
 10
72440.41294284181
 20
319653.2430754245
 30
0.0
  0
VERTEX
  5
BE8
330
B6B
100
AcDbEntity
  8
P_SV_SB_ACHS_01_1
100
AcDbVertex
100
AcDb2dVertex
 10
72440.04717867101
 20
319652.3123680151
 30
0.0
  0
VERTEX
  5
BE9
330
B6B
100
AcDbEntity
  8
P_SV_SB_ACHS_01_1
100
AcDbVertex
100
AcDb2dVertex
 10
72439.68312232608
 20
319651.3809912351
 30
0.0
  0
VERTEX
  5
BEA
330
B6B
100
AcDbEntity
  8
P_SV_SB_ACHS_01_1
100
AcDbVertex
100
AcDb2dVertex
 10
72439.32071988227
 20
319650.4489696609
 30
0.0
  0
VERTEX
  5
BEB
330
B6B
100
AcDbEntity
  8
P_SV_SB_ACHS_01_1
100
AcDbVertex
100
AcDb2dVertex
 10
72438.95991729515
 20
319649.5163275772
 30
0.0
  0
VERTEX
  5
BEC
330
B6B
100
AcDbEntity
  8
P_SV_SB_ACHS_01_1
100
AcDbVertex
100
AcDb2dVertex
 10
72438.60066040541
 20
319648.583088987
 30
0.0
  0
VERTEX
  5
BED
330
B6B
100
AcDbEntity
  8
P_SV_SB_ACHS_01_1
100
AcDbVertex
100
AcDb2dVertex
 10
72438.2428949436
 20
319647.6492776198
 30
0.0
  0
VERTEX
  5
BEE
330
B6B
100
AcDbEntity
  8
P_SV_SB_ACHS_01_1
100
AcDbVertex
100
AcDb2dVertex
 10
72437.88656653478
 20
319646.7149169424
 30
0.0
  0
VERTEX
  5
BEF
330
B6B
100
AcDbEntity
  8
P_SV_SB_ACHS_01_1
100
AcDbVertex
100
AcDb2dVertex
 10
72437.53162070309
 20
319645.7800301678
 30
0.0
  0
VERTEX
  5
BF0
330
B6B
100
AcDbEntity
  8
P_SV_SB_ACHS_01_1
100
AcDbVertex
100
AcDb2dVertex
 10
72437.17800287626
 20
319644.8446402644
 30
0.0
  0
VERTEX
  5
BF1
330
B6B
100
AcDbEntity
  8
P_SV_SB_ACHS_01_1
100
AcDbVertex
100
AcDb2dVertex
 10
72436.82565838999
 20
319643.9087699661
 30
0.0
  0
VERTEX
  5
BF2
330
B6B
100
AcDbEntity
  8
P_SV_SB_ACHS_01_1
100
AcDbVertex
100
AcDb2dVertex
 10
72436.47453249237
 20
319642.9724417815
 30
0.0
  0
VERTEX
  5
BF3
330
B6B
100
AcDbEntity
  8
P_SV_SB_ACHS_01_1
100
AcDbVertex
100
AcDb2dVertex
 10
72436.12457034811
 20
319642.0356780039
 30
0.0
  0
VERTEX
  5
BF4
330
B6B
100
AcDbEntity
  8
P_SV_SB_ACHS_01_1
100
AcDbVertex
100
AcDb2dVertex
 10
72435.77571704281
 20
319641.0985007206
 30
0.0
  0
VERTEX
  5
BF5
330
B6B
100
AcDbEntity
  8
P_SV_SB_ACHS_01_1
100
AcDbVertex
100
AcDb2dVertex
 10
72435.42791758709
 20
319640.1609318225
 30
0.0
  0
VERTEX
  5
BF6
330
B6B
100
AcDbEntity
  8
P_SV_SB_ACHS_01_1
100
AcDbVertex
100
AcDb2dVertex
 10
72435.08111692073
 20
319639.222993014
 30
0.0
  0
VERTEX
  5
BF7
330
B6B
100
AcDbEntity
  8
P_SV_SB_ACHS_01_1
100
AcDbVertex
100
AcDb2dVertex
 10
72434.73525991669
 20
319638.2847058227
 30
0.0
  0
VERTEX
  5
BF8
330
B6B
100
AcDbEntity
  8
P_SV_SB_ACHS_01_1
100
AcDbVertex
100
AcDb2dVertex
 10
72434.39029138515
 20
319637.346091609
 30
0.0
  0
VERTEX
  5
BF9
330
B6B
100
AcDbEntity
  8
P_SV_SB_ACHS_01_1
100
AcDbVertex
100
AcDb2dVertex
 10
72434.04615607739
 20
319636.4071715759
 30
0.0
  0
VERTEX
  5
BFA
330
B6B
100
AcDbEntity
  8
P_SV_SB_ACHS_01_1
100
AcDbVertex
100
AcDb2dVertex
 10
72433.70279868983
 20
319635.4679667786
 30
0.0
  0
VERTEX
  5
BFB
330
B6B
100
AcDbEntity
  8
P_SV_SB_ACHS_01_1
100
AcDbVertex
100
AcDb2dVertex
 10
72433.36016386771
 20
319634.5284981346
 30
0.0
  0
VERTEX
  5
BFC
330
B6B
100
AcDbEntity
  8
P_SV_SB_ACHS_01_1
100
AcDbVertex
100
AcDb2dVertex
 10
72433.01819620901
 20
319633.5887864332
 30
0.0
  0
VERTEX
  5
BFD
330
B6B
100
AcDbEntity
  8
P_SV_SB_ACHS_01_1
100
AcDbVertex
100
AcDb2dVertex
 10
72432.67684026831
 20
319632.6488523454
 30
0.0
  0
VERTEX
  5
BFE
330
B6B
100
AcDbEntity
  8
P_SV_SB_ACHS_01_1
100
AcDbVertex
100
AcDb2dVertex
 10
72432.33604056034
 20
319631.7087164335
 30
0.0
  0
VERTEX
  5
BFF
330
B6B
100
AcDbEntity
  8
P_SV_SB_ACHS_01_1
100
AcDbVertex
100
AcDb2dVertex
 10
72431.99574156387
 20
319630.7683991615
 30
0.0
  0
VERTEX
  5
C00
330
B6B
100
AcDbEntity
  8
P_SV_SB_ACHS_01_1
100
AcDbVertex
100
AcDb2dVertex
 10
72431.65588772534
 20
319629.8279209045
 30
0.0
  0
VERTEX
  5
C01
330
B6B
100
AcDbEntity
  8
P_SV_SB_ACHS_01_1
100
AcDbVertex
100
AcDb2dVertex
 10
72431.31642346246
 20
319628.8873019583
 30
0.0
  0
VERTEX
  5
C02
330
B6B
100
AcDbEntity
  8
P_SV_SB_ACHS_01_1
100
AcDbVertex
100
AcDb2dVertex
 10
72430.97729316792
 20
319627.9465625499
 30
0.0
  0
VERTEX
  5
C03
330
B6B
100
AcDbEntity
  8
P_SV_SB_ACHS_01_1
100
AcDbVertex
100
AcDb2dVertex
 10
72430.638441213
 20
319627.0057228469
 30
0.0
  0
VERTEX
  5
C04
330
B6B
100
AcDbEntity
  8
P_SV_SB_ACHS_01_1
100
AcDbVertex
100
AcDb2dVertex
 10
72430.29981195111
 20
319626.0648029675
 30
0.0
  0
VERTEX
  5
C05
330
B6B
100
AcDbEntity
  8
P_SV_SB_ACHS_01_1
100
AcDbVertex
100
AcDb2dVertex
 10
72429.96134972147
 20
319625.1238229904
 30
0.0
  0
VERTEX
  5
C06
330
B6B
100
AcDbEntity
  8
P_SV_SB_ACHS_01_1
100
AcDbVertex
100
AcDb2dVertex
 10
72429.62299885259
 20
319624.1828029647
 30
0.0
  0
VERTEX
  5
C07
330
B6B
100
AcDbEntity
  8
P_SV_SB_ACHS_01_1
100
AcDbVertex
100
AcDb2dVertex
 10
72429.28470366585
 20
319623.2417629195
 30
0.0
  0
VERTEX
  5
C08
330
B6B
100
AcDbEntity
  8
P_SV_SB_ACHS_01_1
100
AcDbVertex
100
AcDb2dVertex
 10
72428.94501116981
 20
319622.2968340579
 30
0.0
  0
VERTEX
  5
C09
330
B6B
100
AcDbEntity
  8
P_SV_SB_ACHS_01_1
100
AcDbVertex
100
AcDb2dVertex
 10
72428.60526639829
 20
319621.3519239945
 30
0.0
  0
VERTEX
  5
C0A
330
B6B
100
AcDbEntity
  8
P_SV_SB_ACHS_01_1
100
AcDbVertex
100
AcDb2dVertex
 10
72428.26541707644
 20
319620.4070515296
 30
0.0
  0
VERTEX
  5
C0B
330
B6B
100
AcDbEntity
  8
P_SV_SB_ACHS_01_1
100
AcDbVertex
100
AcDb2dVertex
 10
72427.92541093692
 20
319619.462235484
 30
0.0
  0
VERTEX
  5
C0C
330
B6B
100
AcDbEntity
  8
P_SV_SB_ACHS_01_1
100
AcDbVertex
100
AcDb2dVertex
 10
72427.58519572171
 20
319618.5174947046
 30
0.0
  0
VERTEX
  5
C0D
330
B6B
100
AcDbEntity
  8
P_SV_SB_ACHS_01_1
100
AcDbVertex
100
AcDb2dVertex
 10
72427.24471918533
 20
319617.5728480731
 30
0.0
  0
VERTEX
  5
C0E
330
B6B
100
AcDbEntity
  8
P_SV_SB_ACHS_01_1
100
AcDbVertex
100
AcDb2dVertex
 10
72426.90392909795
 20
319616.6283145143
 30
0.0
  0
VERTEX
  5
C0F
330
B6B
100
AcDbEntity
  8
P_SV_SB_ACHS_01_1
100
AcDbVertex
100
AcDb2dVertex
 10
72426.56277324853
 20
319615.6839130054
 30
0.0
  0
VERTEX
  5
C10
330
B6B
100
AcDbEntity
  8
P_SV_SB_ACHS_01_1
100
AcDbVertex
100
AcDb2dVertex
 10
72426.221199448
 20
319614.739662584
 30
0.0
  0
VERTEX
  5
C11
330
B6B
100
AcDbEntity
  8
P_SV_SB_ACHS_01_1
100
AcDbVertex
100
AcDb2dVertex
 10
72425.87915553245
 20
319613.7955823571
 30
0.0
  0
VERTEX
  5
C12
330
B6B
100
AcDbEntity
  8
P_SV_SB_ACHS_01_1
100
AcDbVertex
100
AcDb2dVertex
 10
72425.53658936638
 20
319612.8516915097
 30
0.0
  0
VERTEX
  5
C13
330
B6B
100
AcDbEntity
  8
P_SV_SB_ACHS_01_1
100
AcDbVertex
100
AcDb2dVertex
 10
72425.19344884581
 20
319611.9080093137
 30
0.0
  0
VERTEX
  5
C14
330
B6B
100
AcDbEntity
  8
P_SV_SB_ACHS_01_1
100
AcDbVertex
100
AcDb2dVertex
 10
72424.84968190164
 20
319610.9645551356
 30
0.0
  0
VERTEX
  5
C15
330
B6B
100
AcDbEntity
  8
P_SV_SB_ACHS_01_1
100
AcDbVertex
100
AcDb2dVertex
 10
72424.50523650291
 20
319610.0213484464
 30
0.0
  0
VERTEX
  5
C16
330
B6B
100
AcDbEntity
  8
P_SV_SB_ACHS_01_1
100
AcDbVertex
100
AcDb2dVertex
 10
72424.1600606601
 20
319609.0784088293
 30
0.0
  0
VERTEX
  5
C17
330
B6B
100
AcDbEntity
  8
P_SV_SB_ACHS_01_1
100
AcDbVertex
100
AcDb2dVertex
 10
72423.8141024284
 20
319608.1357559885
 30
0.0
  0
VERTEX
  5
C18
330
B6B
100
AcDbEntity
  8
P_SV_SB_ACHS_01_1
100
AcDbVertex
100
AcDb2dVertex
 10
72423.46730991121
 20
319607.193409758
 30
0.0
  0
VERTEX
  5
C19
330
B6B
100
AcDbEntity
  8
P_SV_SB_ACHS_01_1
100
AcDbVertex
100
AcDb2dVertex
 10
72423.11963126341
 20
319606.2513901099
 30
0.0
  0
VERTEX
  5
C1A
330
B6B
100
AcDbEntity
  8
P_SV_SB_ACHS_01_1
100
AcDbVertex
100
AcDb2dVertex
 10
72422.77101469494
 20
319605.3097171633
 30
0.0
  0
VERTEX
  5
C1B
330
B6B
100
AcDbEntity
  8
P_SV_SB_ACHS_01_1
100
AcDbVertex
100
AcDb2dVertex
 10
72422.42140847417
 20
319604.3684111925
 30
0.0
  0
VERTEX
  5
C1C
330
B6B
100
AcDbEntity
  8
P_SV_SB_ACHS_01_1
100
AcDbVertex
100
AcDb2dVertex
 10
72422.07076093149
 20
319603.4274926355
 30
0.0
  0
VERTEX
  5
C1D
330
B6B
100
AcDbEntity
  8
P_SV_SB_ACHS_01_1
100
AcDbVertex
100
AcDb2dVertex
 10
72421.71902046286
 20
319602.4869821029
 30
0.0
  0
VERTEX
  5
C1E
330
B6B
100
AcDbEntity
  8
P_SV_SB_ACHS_01_1
100
AcDbVertex
100
AcDb2dVertex
 10
72421.36613553346
 20
319601.5469003859
 30
0.0
  0
VERTEX
  5
C1F
330
B6B
100
AcDbEntity
  8
P_SV_SB_ACHS_01_1
100
AcDbVertex
100
AcDb2dVertex
 10
72421.01205468135
 20
319600.6072684653
 30
0.0
  0
VERTEX
  5
C20
330
B6B
100
AcDbEntity
  8
P_SV_SB_ACHS_01_1
100
AcDbVertex
100
AcDb2dVertex
 10
72420.65672652118
 20
319599.6681075194
 30
0.0
  0
VERTEX
  5
C21
330
B6B
100
AcDbEntity
  8
P_SV_SB_ACHS_01_1
100
AcDbVertex
100
AcDb2dVertex
 10
72420.30009974793
 20
319598.7294389327
 30
0.0
  0
VERTEX
  5
C22
330
B6B
100
AcDbEntity
  8
P_SV_SB_ACHS_01_1
100
AcDbVertex
100
AcDb2dVertex
 10
72419.94212314085
 20
319597.7912843046
 30
0.0
  0
VERTEX
  5
C23
330
B6B
100
AcDbEntity
  8
P_SV_SB_ACHS_01_1
100
AcDbVertex
100
AcDb2dVertex
 10
72419.58274556727
 20
319596.853665457
 30
0.0
  0
VERTEX
  5
C24
330
B6B
100
AcDbEntity
  8
P_SV_SB_ACHS_01_1
100
AcDbVertex
100
AcDb2dVertex
 10
72419.22191598656
 20
319595.9166044436
 30
0.0
  0
VERTEX
  5
C25
330
B6B
100
AcDbEntity
  8
P_SV_SB_ACHS_01_1
100
AcDbVertex
100
AcDb2dVertex
 10
72418.8595834542
 20
319594.9801235573
 30
0.0
  0
VERTEX
  5
C26
330
B6B
100
AcDbEntity
  8
P_SV_SB_ACHS_01_1
100
AcDbVertex
100
AcDb2dVertex
 10
72418.49569712582
 20
319594.0442453393
 30
0.0
  0
VERTEX
  5
C27
330
B6B
100
AcDbEntity
  8
P_SV_SB_ACHS_01_1
100
AcDbVertex
100
AcDb2dVertex
 10
72418.13020626134
 20
319593.1089925869
 30
0.0
  0
VERTEX
  5
C28
330
B6B
100
AcDbEntity
  8
P_SV_SB_ACHS_01_1
100
AcDbVertex
100
AcDb2dVertex
 10
72417.76306022924
 20
319592.1743883618
 30
0.0
  0
VERTEX
  5
C29
330
B6B
100
AcDbEntity
  8
P_SV_SB_ACHS_01_1
100
AcDbVertex
100
AcDb2dVertex
 10
72417.39420851087
 20
319591.2404559984
 30
0.0
  0
VERTEX
  5
C2A
330
B6B
100
AcDbEntity
  8
P_SV_SB_ACHS_01_1
100
AcDbVertex
100
AcDb2dVertex
 10
72417.02360070471
 20
319590.307219112
 30
0.0
  0
VERTEX
  5
C2B
330
B6B
100
AcDbEntity
  8
P_SV_SB_ACHS_01_1
100
AcDbVertex
100
AcDb2dVertex
 10
72416.65118653092
 20
319589.374701607
 30
0.0
  0
VERTEX
  5
C2C
330
B6B
100
AcDbEntity
  8
P_SV_SB_ACHS_01_1
100
AcDbVertex
100
AcDb2dVertex
 10
72416.27691583588
 20
319588.4429276846
 30
0.0
  0
VERTEX
  5
C2D
330
B6B
100
AcDbEntity
  8
P_SV_SB_ACHS_01_1
100
AcDbVertex
100
AcDb2dVertex
 10
72415.90073859673
 20
319587.5119218516
 30
0.0
  0
VERTEX
  5
C2E
330
B6B
100
AcDbEntity
  8
P_SV_SB_ACHS_01_1
100
AcDbVertex
100
AcDb2dVertex
 10
72415.52260492605
 20
319586.5817089276
 30
0.0
  0
VERTEX
  5
C2F
330
B6B
100
AcDbEntity
  8
P_SV_SB_ACHS_01_1
100
AcDbVertex
100
AcDb2dVertex
 10
72415.14246507675
 20
319585.6523140535
 30
0.0
  0
VERTEX
  5
C30
330
B6B
100
AcDbEntity
  8
P_SV_SB_ACHS_01_1
100
AcDbVertex
100
AcDb2dVertex
 10
72414.7602694468
 20
319584.7237626997
 30
0.0
  0
VERTEX
  5
C31
330
B6B
100
AcDbEntity
  8
P_SV_SB_ACHS_01_1
100
AcDbVertex
100
AcDb2dVertex
 10
72414.37596858431
 20
319583.7960806731
 30
0.0
  0
VERTEX
  5
C32
330
B6B
100
AcDbEntity
  8
P_SV_SB_ACHS_01_1
100
AcDbVertex
100
AcDb2dVertex
 10
72413.98951319249
 20
319582.8692941261
 30
0.0
  0
VERTEX
  5
C33
330
B6B
100
AcDbEntity
  8
P_SV_SB_ACHS_01_1
100
AcDbVertex
100
AcDb2dVertex
 10
72413.60085413477
 20
319581.9434295634
 30
0.0
  0
VERTEX
  5
C34
330
B6B
100
AcDbEntity
  8
P_SV_SB_ACHS_01_1
100
AcDbVertex
100
AcDb2dVertex
 10
72413.20994244016
 20
319581.0185138506
 30
0.0
  0
VERTEX
  5
C35
330
B6B
100
AcDbEntity
  8
P_SV_SB_ACHS_01_1
100
AcDbVertex
100
AcDb2dVertex
 10
72412.81672930848
 20
319580.0945742212
 30
0.0
  0
VERTEX
  5
C36
330
B6B
100
AcDbEntity
  8
P_SV_SB_ACHS_01_1
100
AcDbVertex
100
AcDb2dVertex
 10
72412.42116611585
 20
319579.1716382848
 30
0.0
  0
VERTEX
  5
C37
330
B6B
100
AcDbEntity
  8
P_SV_SB_ACHS_01_1
100
AcDbVertex
100
AcDb2dVertex
 10
72412.02320442015
 20
319578.2497340345
 30
0.0
  0
VERTEX
  5
C38
330
B6B
100
AcDbEntity
  8
P_SV_SB_ACHS_01_1
100
AcDbVertex
100
AcDb2dVertex
 10
72411.62279596681
 20
319577.3288898546
 30
0.0
  0
VERTEX
  5
C39
330
B6B
100
AcDbEntity
  8
P_SV_SB_ACHS_01_1
100
AcDbVertex
100
AcDb2dVertex
 10
72411.21989269438
 20
319576.4091345278
 30
0.0
  0
VERTEX
  5
C3A
330
B6B
100
AcDbEntity
  8
P_SV_SB_ACHS_01_1
100
AcDbVertex
100
AcDb2dVertex
 10
72410.81444674054
 20
319575.4904972432
 30
0.0
  0
VERTEX
  5
C3B
330
B6B
100
AcDbEntity
  8
P_SV_SB_ACHS_01_1
100
AcDbVertex
100
AcDb2dVertex
 10
72410.40641044796
 20
319574.5730076029
 30
0.0
  0
VERTEX
  5
C3C
330
B6B
100
AcDbEntity
  8
P_SV_SB_ACHS_01_1
100
AcDbVertex
100
AcDb2dVertex
 10
72409.99573637046
 20
319573.6566956302
 30
0.0
  0
VERTEX
  5
C3D
330
B6B
100
AcDbEntity
  8
P_SV_SB_ACHS_01_1
100
AcDbVertex
100
AcDb2dVertex
 10
72409.58237727913
 20
319572.7415917762
 30
0.0
  0
VERTEX
  5
C3E
330
B6B
100
AcDbEntity
  8
P_SV_SB_ACHS_01_1
100
AcDbVertex
100
AcDb2dVertex
 10
72409.1662861687
 20
319571.8277269273
 30
0.0
 42
-0.1376301405392961
  0
VERTEX
  5
C3F
330
B6B
100
AcDbEntity
  8
P_SV_SB_ACHS_01_1
100
AcDbVertex
100
AcDb2dVertex
 10
72293.99051900614
 20
319435.7267394178
 30
0.0
  0
VERTEX
  5
C40
330
B6B
100
AcDbEntity
  8
P_SV_SB_ACHS_01_1
100
AcDbVertex
100
AcDb2dVertex
 10
72293.15806503765
 20
319435.1652225752
 30
0.0
  0
VERTEX
  5
C41
330
B6B
100
AcDbEntity
  8
P_SV_SB_ACHS_01_1
100
AcDbVertex
100
AcDb2dVertex
 10
72292.32393724301
 20
319434.6061951839
 30
0.0
  0
VERTEX
  5
C42
330
B6B
100
AcDbEntity
  8
P_SV_SB_ACHS_01_1
100
AcDbVertex
100
AcDb2dVertex
 10
72291.48817385807
 20
319434.0496159948
 30
0.0
  0
VERTEX
  5
C43
330
B6B
100
AcDbEntity
  8
P_SV_SB_ACHS_01_1
100
AcDbVertex
100
AcDb2dVertex
 10
72290.65081272643
 20
319433.4954434664
 30
0.0
  0
VERTEX
  5
C44
330
B6B
100
AcDbEntity
  8
P_SV_SB_ACHS_01_1
100
AcDbVertex
100
AcDb2dVertex
 10
72289.8118913054
 20
319432.9436357719
 30
0.0
  0
VERTEX
  5
C45
330
B6B
100
AcDbEntity
  8
P_SV_SB_ACHS_01_1
100
AcDbVertex
100
AcDb2dVertex
 10
72288.97144667238
 20
319432.3941508069
 30
0.0
  0
VERTEX
  5
C46
330
B6B
100
AcDbEntity
  8
P_SV_SB_ACHS_01_1
100
AcDbVertex
100
AcDb2dVertex
 10
72288.12951553077
 20
319431.8469461962
 30
0.0
  0
VERTEX
  5
C47
330
B6B
100
AcDbEntity
  8
P_SV_SB_ACHS_01_1
100
AcDbVertex
100
AcDb2dVertex
 10
72287.28613421654
 20
319431.3019793011
 30
0.0
  0
VERTEX
  5
C48
330
B6B
100
AcDbEntity
  8
P_SV_SB_ACHS_01_1
100
AcDbVertex
100
AcDb2dVertex
 10
72286.44133870441
 20
319430.7592072267
 30
0.0
  0
VERTEX
  5
C49
330
B6B
100
AcDbEntity
  8
P_SV_SB_ACHS_01_1
100
AcDbVertex
100
AcDb2dVertex
 10
72285.59516461448
 20
319430.2185868282
 30
0.0
  0
VERTEX
  5
C4A
330
B6B
100
AcDbEntity
  8
P_SV_SB_ACHS_01_1
100
AcDbVertex
100
AcDb2dVertex
 10
72284.74764721859
 20
319429.6800747184
 30
0.0
  0
VERTEX
  5
C4B
330
B6B
100
AcDbEntity
  8
P_SV_SB_ACHS_01_1
100
AcDbVertex
100
AcDb2dVertex
 10
72283.89882144704
 20
319429.1436272735
 30
0.0
  0
VERTEX
  5
C4C
330
B6B
100
AcDbEntity
  8
P_SV_SB_ACHS_01_1
100
AcDbVertex
100
AcDb2dVertex
 10
72283.04872189521
 20
319428.609200641
 30
0.0
  0
VERTEX
  5
C4D
330
B6B
100
AcDbEntity
  8
P_SV_SB_ACHS_01_1
100
AcDbVertex
100
AcDb2dVertex
 10
72282.19738283025
 20
319428.076750745
 30
0.0
  0
VERTEX
  5
C4E
330
B6B
100
AcDbEntity
  8
P_SV_SB_ACHS_01_1
100
AcDbVertex
100
AcDb2dVertex
 10
72281.344838198
 20
319427.5462332935
 30
0.0
  0
VERTEX
  5
C4F
330
B6B
100
AcDbEntity
  8
P_SV_SB_ACHS_01_1
100
AcDbVertex
100
AcDb2dVertex
 10
72280.49112162975
 20
319427.0176037843
 30
0.0
  0
VERTEX
  5
C50
330
B6B
100
AcDbEntity
  8
P_SV_SB_ACHS_01_1
100
AcDbVertex
100
AcDb2dVertex
 10
72279.63626644914
 20
319426.4908175116
 30
0.0
  0
VERTEX
  5
C51
330
B6B
100
AcDbEntity
  8
P_SV_SB_ACHS_01_1
100
AcDbVertex
100
AcDb2dVertex
 10
72278.78030567929
 20
319425.9658295718
 30
0.0
  0
VERTEX
  5
C52
330
B6B
100
AcDbEntity
  8
P_SV_SB_ACHS_01_1
100
AcDbVertex
100
AcDb2dVertex
 10
72277.92327204963
 20
319425.4425948699
 30
0.0
  0
VERTEX
  5
C53
330
B6B
100
AcDbEntity
  8
P_SV_SB_ACHS_01_1
100
AcDbVertex
100
AcDb2dVertex
 10
72277.0651980032
 20
319424.9210681258
 30
0.0
  0
VERTEX
  5
C54
330
B6B
100
AcDbEntity
  8
P_SV_SB_ACHS_01_1
100
AcDbVertex
100
AcDb2dVertex
 10
72276.20611570364
 20
319424.4012038795
 30
0.0
  0
VERTEX
  5
C55
330
B6B
100
AcDbEntity
  8
P_SV_SB_ACHS_01_1
100
AcDbVertex
100
AcDb2dVertex
 10
72275.34605704243
 20
319423.8829564976
 30
0.0
  0
VERTEX
  5
C56
330
B6B
100
AcDbEntity
  8
P_SV_SB_ACHS_01_1
100
AcDbVertex
100
AcDb2dVertex
 10
72274.48505364624
 20
319423.3662801789
 30
0.0
  0
VERTEX
  5
C57
330
B6B
100
AcDbEntity
  8
P_SV_SB_ACHS_01_1
100
AcDbVertex
100
AcDb2dVertex
 10
72273.62313688408
 20
319422.8511289603
 30
0.0
  0
VERTEX
  5
C58
330
B6B
100
AcDbEntity
  8
P_SV_SB_ACHS_01_1
100
AcDbVertex
100
AcDb2dVertex
 10
72272.7603378747
 20
319422.3374567221
 30
0.0
  0
VERTEX
  5
C59
330
B6B
100
AcDbEntity
  8
P_SV_SB_ACHS_01_1
100
AcDbVertex
100
AcDb2dVertex
 10
72271.89668749398
 20
319421.8252171939
 30
0.0
  0
VERTEX
  5
C5A
330
B6B
100
AcDbEntity
  8
P_SV_SB_ACHS_01_1
100
AcDbVertex
100
AcDb2dVertex
 10
72271.0322163824
 20
319421.3143639601
 30
0.0
  0
VERTEX
  5
C5B
330
B6B
100
AcDbEntity
  8
P_SV_SB_ACHS_01_1
100
AcDbVertex
100
AcDb2dVertex
 10
72270.16695495245
 20
319420.8048504652
 30
0.0
  0
VERTEX
  5
C5C
330
B6B
100
AcDbEntity
  8
P_SV_SB_ACHS_01_1
100
AcDbVertex
100
AcDb2dVertex
 10
72269.30093339612
 20
319420.2966300194
 30
0.0
  0
VERTEX
  5
C5D
330
B6B
100
AcDbEntity
  8
P_SV_SB_ACHS_01_1
100
AcDbVertex
100
AcDb2dVertex
 10
72268.43418169258
 20
319419.7896558038
 30
0.0
  0
VERTEX
  5
C5E
330
B6B
100
AcDbEntity
  8
P_SV_SB_ACHS_01_1
100
AcDbVertex
100
AcDb2dVertex
 10
72267.56672961556
 20
319419.2838808758
 30
0.0
  0
VERTEX
  5
C5F
330
B6B
100
AcDbEntity
  8
P_SV_SB_ACHS_01_1
100
AcDbVertex
100
AcDb2dVertex
 10
72266.69860674119
 20
319418.779258174
 30
0.0
  0
VERTEX
  5
C60
330
B6B
100
AcDbEntity
  8
P_SV_SB_ACHS_01_1
100
AcDbVertex
100
AcDb2dVertex
 10
72265.82984245549
 20
319418.275740524
 30
0.0
  0
VERTEX
  5
C61
330
B6B
100
AcDbEntity
  8
P_SV_SB_ACHS_01_1
100
AcDbVertex
100
AcDb2dVertex
 10
72264.96046596214
 20
319417.773280643
 30
0.0
  0
VERTEX
  5
C62
330
B6B
100
AcDbEntity
  8
P_SV_SB_ACHS_01_1
100
AcDbVertex
100
AcDb2dVertex
 10
72264.09050629015
 20
319417.2718311448
 30
0.0
  0
VERTEX
  5
C63
330
B6B
100
AcDbEntity
  8
P_SV_SB_ACHS_01_1
100
AcDbVertex
100
AcDb2dVertex
 10
72263.21999230163
 20
319416.7713445454
 30
0.0
  0
VERTEX
  5
C64
330
B6B
100
AcDbEntity
  8
P_SV_SB_ACHS_01_1
100
AcDbVertex
100
AcDb2dVertex
 10
72262.34895269958
 20
319416.2717732675
 30
0.0
  0
VERTEX
  5
C65
330
B6B
100
AcDbEntity
  8
P_SV_SB_ACHS_01_1
100
AcDbVertex
100
AcDb2dVertex
 10
72261.47741603563
 20
319415.7730696453
 30
0.0
  0
VERTEX
  5
C66
330
B6B
100
AcDbEntity
  8
P_SV_SB_ACHS_01_1
100
AcDbVertex
100
AcDb2dVertex
 10
72260.60541071792
 20
319415.2751859299
 30
0.0
  0
VERTEX
  5
C67
330
B6B
100
AcDbEntity
  8
P_SV_SB_ACHS_01_1
100
AcDbVertex
100
AcDb2dVertex
 10
72259.73296501893
 20
319414.778074294
 30
0.0
  0
VERTEX
  5
C68
330
B6B
100
AcDbEntity
  8
P_SV_SB_ACHS_01_1
100
AcDbVertex
100
AcDb2dVertex
 10
72258.86010708332
 20
319414.2816868361
 30
0.0
  0
VERTEX
  5
C69
330
B6B
100
AcDbEntity
  8
P_SV_SB_ACHS_01_1
100
AcDbVertex
100
AcDb2dVertex
 10
72257.98686493588
 20
319413.7859755862
 30
0.0
  0
VERTEX
  5
C6A
330
B6B
100
AcDbEntity
  8
P_SV_SB_ACHS_01_1
100
AcDbVertex
100
AcDb2dVertex
 10
72257.11326648935
 20
319413.2908925102
 30
0.0
  0
VERTEX
  5
C6B
330
B6B
100
AcDbEntity
  8
P_SV_SB_ACHS_01_1
100
AcDbVertex
100
AcDb2dVertex
 10
72256.23933955246
 20
319412.7963895142
 30
0.0
  0
VERTEX
  5
C6C
330
B6B
100
AcDbEntity
  8
P_SV_SB_ACHS_01_1
100
AcDbVertex
100
AcDb2dVertex
 10
72255.36511183773
 20
319412.3024184496
 30
0.0
  0
VERTEX
  5
C6D
330
B6B
100
AcDbEntity
  8
P_SV_SB_ACHS_01_1
100
AcDbVertex
100
AcDb2dVertex
 10
72254.4906109696
 20
319411.8089311179
 30
0.0
  0
VERTEX
  5
C6E
330
B6B
100
AcDbEntity
  8
P_SV_SB_ACHS_01_1
100
AcDbVertex
100
AcDb2dVertex
 10
72253.61586449222
 20
319411.3158792749
 30
0.0
  0
VERTEX
  5
C6F
330
B6B
100
AcDbEntity
  8
P_SV_SB_ACHS_01_1
100
AcDbVertex
100
AcDb2dVertex
 10
72252.7408998776
 20
319410.8232146356
 30
0.0
  0
VERTEX
  5
C70
330
B6B
100
AcDbEntity
  8
P_SV_SB_ACHS_01_1
100
AcDbVertex
100
AcDb2dVertex
 10
72251.86574453346
 20
319410.3308888787
 30
0.0
  0
VERTEX
  5
C71
330
B6B
100
AcDbEntity
  8
P_SV_SB_ACHS_01_1
100
AcDbVertex
100
AcDb2dVertex
 10
72250.99042581136
 20
319409.8388536512
 30
0.0
  0
VERTEX
  5
C72
330
B6B
100
AcDbEntity
  8
P_SV_SB_ACHS_01_1
100
AcDbVertex
100
AcDb2dVertex
 10
72250.11497101463
 20
319409.347060573
 30
0.0
  0
VERTEX
  5
C73
330
B6B
100
AcDbEntity
  8
P_SV_SB_ACHS_01_1
100
AcDbVertex
100
AcDb2dVertex
 10
72249.23940740642
 20
319408.8554612412
 30
0.0
  0
VERTEX
  5
C74
330
B6B
100
AcDbEntity
  8
P_SV_SB_ACHS_01_1
100
AcDbVertex
100
AcDb2dVertex
 10
72248.36376221775
 20
319408.3640072352
 30
0.0
  0
VERTEX
  5
C75
330
B6B
100
AcDbEntity
  8
P_SV_SB_ACHS_01_1
100
AcDbVertex
100
AcDb2dVertex
 10
72247.4880626555
 20
319407.8726501204
 30
0.0
  0
VERTEX
  5
C76
330
B6B
100
AcDbEntity
  8
P_SV_SB_ACHS_01_1
100
AcDbVertex
100
AcDb2dVertex
 10
72246.61233591061
 20
319407.3813414535
 30
0.0
  0
VERTEX
  5
C77
330
B6B
100
AcDbEntity
  8
P_SV_SB_ACHS_01_1
100
AcDbVertex
100
AcDb2dVertex
 10
72242.15848622612
 20
319404.8826537294
 30
0.0
  0
VERTEX
  5
C78
330
B6B
100
AcDbEntity
  8
P_SV_SB_ACHS_01_1
100
AcDbVertex
100
AcDb2dVertex
 10
72224.71593737007
 20
319395.0970781509
 30
0.0
  0
VERTEX
  5
C79
330
B6B
100
AcDbEntity
  8
P_SV_SB_ACHS_01_1
100
AcDbVertex
100
AcDb2dVertex
 10
72207.27338851402
 20
319385.3115025723
 30
0.0
  0
VERTEX
  5
C7A
330
B6B
100
AcDbEntity
  8
P_SV_SB_ACHS_01_1
100
AcDbVertex
100
AcDb2dVertex
 10
72189.83083965795
 20
319375.5259269937
 30
0.0
  0
VERTEX
  5
C7B
330
B6B
100
AcDbEntity
  8
P_SV_SB_ACHS_01_1
100
AcDbVertex
100
AcDb2dVertex
 10
72172.38829080188
 20
319365.7403514152
 30
0.0
  0
VERTEX
  5
C7C
330
B6B
100
AcDbEntity
  8
P_SV_SB_ACHS_01_1
100
AcDbVertex
100
AcDb2dVertex
 10
72154.94574194582
 20
319355.9547758366
 30
0.0
  0
VERTEX
  5
C7D
330
B6B
100
AcDbEntity
  8
P_SV_SB_ACHS_01_1
100
AcDbVertex
100
AcDb2dVertex
 10
72137.50319308976
 20
319346.169200258
 30
0.0
  0
VERTEX
  5
C7E
330
B6B
100
AcDbEntity
  8
P_SV_SB_ACHS_01_1
100
AcDbVertex
100
AcDb2dVertex
 10
72120.0606442337
 20
319336.3836246794
 30
0.0
  0
VERTEX
  5
C7F
330
B6B
100
AcDbEntity
  8
P_SV_SB_ACHS_01_1
100
AcDbVertex
100
AcDb2dVertex
 10
72102.61809537763
 20
319326.5980491009
 30
0.0
  0
VERTEX
  5
C80
330
B6B
100
AcDbEntity
  8
P_SV_SB_ACHS_01_1
100
AcDbVertex
100
AcDb2dVertex
 10
72085.17554652158
 20
319316.8124735223
 30
0.0
  0
VERTEX
  5
C81
330
B6B
100
AcDbEntity
  8
P_SV_SB_ACHS_01_1
100
AcDbVertex
100
AcDb2dVertex
 10
72067.73299766552
 20
319307.0268979437
 30
0.0
  0
VERTEX
  5
C82
330
B6B
100
AcDbEntity
  8
P_SV_SB_ACHS_01_1
100
AcDbVertex
100
AcDb2dVertex
 10
72050.29044880945
 20
319297.2413223652
 30
0.0
  0
VERTEX
  5
C83
330
B6B
100
AcDbEntity
  8
P_SV_SB_ACHS_01_1
100
AcDbVertex
100
AcDb2dVertex
 10
72032.84789995338
 20
319287.4557467866
 30
0.0
  0
VERTEX
  5
C84
330
B6B
100
AcDbEntity
  8
P_SV_SB_ACHS_01_1
100
AcDbVertex
100
AcDb2dVertex
 10
72015.4053510973
 20
319277.6701712081
 30
0.0
  0
VERTEX
  5
C85
330
B6B
100
AcDbEntity
  8
P_SV_SB_ACHS_01_1
100
AcDbVertex
100
AcDb2dVertex
 10
71997.96280224123
 20
319267.8845956296
 30
0.0
  0
VERTEX
  5
C86
330
B6B
100
AcDbEntity
  8
P_SV_SB_ACHS_01_1
100
AcDbVertex
100
AcDb2dVertex
 10
71984.72765694666
 20
319260.4594471812
 30
0.0
  0
VERTEX
  5
C87
330
B6B
100
AcDbEntity
  8
P_SV_SB_ACHS_01_1
100
AcDbVertex
100
AcDb2dVertex
 10
71983.85354553428
 20
319259.9690597236
 30
0.0
  0
VERTEX
  5
C88
330
B6B
100
AcDbEntity
  8
P_SV_SB_ACHS_01_1
100
AcDbVertex
100
AcDb2dVertex
 10
71982.97942295167
 20
319259.4786921775
 30
0.0
  0
VERTEX
  5
C89
330
B6B
100
AcDbEntity
  8
P_SV_SB_ACHS_01_1
100
AcDbVertex
100
AcDb2dVertex
 10
71982.10527802995
 20
319258.9883644551
 30
0.0
  0
VERTEX
  5
C8A
330
B6B
100
AcDbEntity
  8
P_SV_SB_ACHS_01_1
100
AcDbVertex
100
AcDb2dVertex
 10
71981.23109960297
 20
319258.4980964701
 30
0.0
  0
VERTEX
  5
C8B
330
B6B
100
AcDbEntity
  8
P_SV_SB_ACHS_01_1
100
AcDbVertex
100
AcDb2dVertex
 10
71980.52004189143
 20
319258.0993971043
 30
0.0
  0
VERTEX
  5
C8C
330
B6B
100
AcDbEntity
  8
P_SV_SB_ACHS_01_1
100
AcDbVertex
100
AcDb2dVertex
 10
71980.35687650865
 20
319258.0079081386
 30
0.0
  0
VERTEX
  5
C8D
330
B6B
100
AcDbEntity
  8
P_SV_SB_ACHS_01_1
100
AcDbVertex
100
AcDb2dVertex
 10
71979.48259759038
 20
319257.5178193797
 30
0.0
  0
VERTEX
  5
C8E
330
B6B
100
AcDbEntity
  8
P_SV_SB_ACHS_01_1
100
AcDbVertex
100
AcDb2dVertex
 10
71978.60825169831
 20
319257.0278501163
 30
0.0
  0
VERTEX
  5
C8F
330
B6B
100
AcDbEntity
  8
P_SV_SB_ACHS_01_1
100
AcDbVertex
100
AcDb2dVertex
 10
71977.73382769084
 20
319256.538020276
 30
0.0
  0
VERTEX
  5
C90
330
B6B
100
AcDbEntity
  8
P_SV_SB_ACHS_01_1
100
AcDbVertex
100
AcDb2dVertex
 10
71976.85931443579
 20
319256.0483497914
 30
0.0
  0
VERTEX
  5
C91
330
B6B
100
AcDbEntity
  8
P_SV_SB_ACHS_01_1
100
AcDbVertex
100
AcDb2dVertex
 10
71975.98470081195
 20
319255.5588586016
 30
0.0
  0
VERTEX
  5
C92
330
B6B
100
AcDbEntity
  8
P_SV_SB_ACHS_01_1
100
AcDbVertex
100
AcDb2dVertex
 10
71975.10997571035
 20
319255.0695666522
 30
0.0
  0
VERTEX
  5
C93
330
B6B
100
AcDbEntity
  8
P_SV_SB_ACHS_01_1
100
AcDbVertex
100
AcDb2dVertex
 10
71974.23512803563
 20
319254.5804938968
 30
0.0
  0
VERTEX
  5
C94
330
B6B
100
AcDbEntity
  8
P_SV_SB_ACHS_01_1
100
AcDbVertex
100
AcDb2dVertex
 10
71973.36014670745
 20
319254.0916602969
 30
0.0
  0
VERTEX
  5
C95
330
B6B
100
AcDbEntity
  8
P_SV_SB_ACHS_01_1
100
AcDbVertex
100
AcDb2dVertex
 10
71972.48502066174
 20
319253.6030858236
 30
0.0
  0
VERTEX
  5
C96
330
B6B
100
AcDbEntity
  8
P_SV_SB_ACHS_01_1
100
AcDbVertex
100
AcDb2dVertex
 10
71971.60973885226
 20
319253.1147904573
 30
0.0
  0
VERTEX
  5
C97
330
B6B
100
AcDbEntity
  8
P_SV_SB_ACHS_01_1
100
AcDbVertex
100
AcDb2dVertex
 10
71970.73429025178
 20
319252.6267941896
 30
0.0
  0
VERTEX
  5
C98
330
B6B
100
AcDbEntity
  8
P_SV_SB_ACHS_01_1
100
AcDbVertex
100
AcDb2dVertex
 10
71969.85866385356
 20
319252.1391170231
 30
0.0
  0
VERTEX
  5
C99
330
B6B
100
AcDbEntity
  8
P_SV_SB_ACHS_01_1
100
AcDbVertex
100
AcDb2dVertex
 10
71968.98284867271
 20
319251.6517789725
 30
0.0
  0
VERTEX
  5
C9A
330
B6B
100
AcDbEntity
  8
P_SV_SB_ACHS_01_1
100
AcDbVertex
100
AcDb2dVertex
 10
71968.10683374747
 20
319251.1648000657
 30
0.0
  0
VERTEX
  5
C9B
330
B6B
100
AcDbEntity
  8
P_SV_SB_ACHS_01_1
100
AcDbVertex
100
AcDb2dVertex
 10
71967.23060814075
 20
319250.6782003436
 30
0.0
  0
VERTEX
  5
C9C
330
B6B
100
AcDbEntity
  8
P_SV_SB_ACHS_01_1
100
AcDbVertex
100
AcDb2dVertex
 10
71966.35416094133
 20
319250.1919998621
 30
0.0
  0
VERTEX
  5
C9D
330
B6B
100
AcDbEntity
  8
P_SV_SB_ACHS_01_1
100
AcDbVertex
100
AcDb2dVertex
 10
71965.47748126539
 20
319249.7062186917
 30
0.0
  0
VERTEX
  5
C9E
330
B6B
100
AcDbEntity
  8
P_SV_SB_ACHS_01_1
100
AcDbVertex
100
AcDb2dVertex
 10
71964.60055825776
 20
319249.2208769188
 30
0.0
  0
VERTEX
  5
C9F
330
B6B
100
AcDbEntity
  8
P_SV_SB_ACHS_01_1
100
AcDbVertex
100
AcDb2dVertex
 10
71963.72338109341
 20
319248.7359946463
 30
0.0
  0
VERTEX
  5
CA0
330
B6B
100
AcDbEntity
  8
P_SV_SB_ACHS_01_1
100
AcDbVertex
100
AcDb2dVertex
 10
71963.04949835862
 20
319248.36396944
 30
0.0
  0
VERTEX
  5
CA1
330
B6B
100
AcDbEntity
  8
P_SV_SB_ACHS_01_1
100
AcDbVertex
100
AcDb2dVertex
 10
71962.84593897871
 20
319248.2515919945
 30
0.0
  0
VERTEX
  5
CA2
330
B6B
100
AcDbEntity
  8
P_SV_SB_ACHS_01_1
100
AcDbVertex
100
AcDb2dVertex
 10
71961.96822115297
 20
319247.7676891013
 30
0.0
  0
VERTEX
  5
CA3
330
B6B
100
AcDbEntity
  8
P_SV_SB_ACHS_01_1
100
AcDbVertex
100
AcDb2dVertex
 10
71961.09021688967
 20
319247.2843061238
 30
0.0
  0
VERTEX
  5
CA4
330
B6B
100
AcDbEntity
  8
P_SV_SB_ACHS_01_1
100
AcDbVertex
100
AcDb2dVertex
 10
71960.21191549797
 20
319246.801463238
 30
0.0
  0
VERTEX
  5
CA5
330
B6B
100
AcDbEntity
  8
P_SV_SB_ACHS_01_1
100
AcDbVertex
100
AcDb2dVertex
 10
71959.33330632401
 20
319246.3191806404
 30
0.0
  0
VERTEX
  5
CA6
330
B6B
100
AcDbEntity
  8
P_SV_SB_ACHS_01_1
100
AcDbVertex
100
AcDb2dVertex
 10
71958.45437875237
 20
319245.837478548
 30
0.0
  0
VERTEX
  5
CA7
330
B6B
100
AcDbEntity
  8
P_SV_SB_ACHS_01_1
100
AcDbVertex
100
AcDb2dVertex
 10
71957.57512220746
 20
319245.3563771994
 30
0.0
  0
VERTEX
  5
CA8
330
B6B
100
AcDbEntity
  8
P_SV_SB_ACHS_01_1
100
AcDbVertex
100
AcDb2dVertex
 10
71956.69552615482
 20
319244.8758968554
 30
0.0
  0
VERTEX
  5
CA9
330
B6B
100
AcDbEntity
  8
P_SV_SB_ACHS_01_1
100
AcDbVertex
100
AcDb2dVertex
 10
71955.8155801027
 20
319244.3960577998
 30
0.0
  0
VERTEX
  5
CAA
330
B6B
100
AcDbEntity
  8
P_SV_SB_ACHS_01_1
100
AcDbVertex
100
AcDb2dVertex
 10
71954.93527360327
 20
319243.9168803398
 30
0.0
  0
VERTEX
  5
CAB
330
B6B
100
AcDbEntity
  8
P_SV_SB_ACHS_01_1
100
AcDbVertex
100
AcDb2dVertex
 10
71954.05459625416
 20
319243.438384807
 30
0.0
  0
VERTEX
  5
CAC
330
B6B
100
AcDbEntity
  8
P_SV_SB_ACHS_01_1
100
AcDbVertex
100
AcDb2dVertex
 10
71953.17353769984
 20
319242.9605915579
 30
0.0
  0
VERTEX
  5
CAD
330
B6B
100
AcDbEntity
  8
P_SV_SB_ACHS_01_1
100
AcDbVertex
100
AcDb2dVertex
 10
71952.29208763294
 20
319242.4835209744
 30
0.0
  0
VERTEX
  5
CAE
330
B6B
100
AcDbEntity
  8
P_SV_SB_ACHS_01_1
100
AcDbVertex
100
AcDb2dVertex
 10
71951.41023579584
 20
319242.0071934651
 30
0.0
  0
VERTEX
  5
CAF
330
B6B
100
AcDbEntity
  8
P_SV_SB_ACHS_01_1
100
AcDbVertex
100
AcDb2dVertex
 10
71950.52797198191
 20
319241.5316294651
 30
0.0
  0
VERTEX
  5
CB0
330
B6B
100
AcDbEntity
  8
P_SV_SB_ACHS_01_1
100
AcDbVertex
100
AcDb2dVertex
 10
71949.64528603701
 20
319241.0568494374
 30
0.0
  0
VERTEX
  5
CB1
330
B6B
100
AcDbEntity
  8
P_SV_SB_ACHS_01_1
100
AcDbVertex
100
AcDb2dVertex
 10
71948.76216786097
 20
319240.5828738729
 30
0.0
  0
VERTEX
  5
CB2
330
B6B
100
AcDbEntity
  8
P_SV_SB_ACHS_01_1
100
AcDbVertex
100
AcDb2dVertex
 10
71947.87860740889
 20
319240.1097232917
 30
0.0
  0
VERTEX
  5
CB3
330
B6B
100
AcDbEntity
  8
P_SV_SB_ACHS_01_1
100
AcDbVertex
100
AcDb2dVertex
 10
71946.99459469263
 20
319239.6374182431
 30
0.0
  0
VERTEX
  5
CB4
330
B6B
100
AcDbEntity
  8
P_SV_SB_ACHS_01_1
100
AcDbVertex
100
AcDb2dVertex
 10
71946.11011978229
 20
319239.1659793069
 30
0.0
  0
VERTEX
  5
CB5
330
B6B
100
AcDbEntity
  8
P_SV_SB_ACHS_01_1
100
AcDbVertex
100
AcDb2dVertex
 10
71945.47060642953
 20
319238.8259313352
 30
0.0
  0
VERTEX
  5
CB6
330
B6B
100
AcDbEntity
  8
P_SV_SB_ACHS_01_1
100
AcDbVertex
100
AcDb2dVertex
 10
71945.22517280757
 20
319238.6954270932
 30
0.0
  0
VERTEX
  5
CB7
330
B6B
100
AcDbEntity
  8
P_SV_SB_ACHS_01_1
100
AcDbVertex
100
AcDb2dVertex
 10
71944.33974395926
 20
319238.2257822439
 30
0.0
  0
VERTEX
  5
CB8
330
B6B
100
AcDbEntity
  8
P_SV_SB_ACHS_01_1
100
AcDbVertex
100
AcDb2dVertex
 10
71943.45382349065
 20
319237.7570654326
 30
0.0
  0
VERTEX
  5
CB9
330
B6B
100
AcDbEntity
  8
P_SV_SB_ACHS_01_1
100
AcDbVertex
100
AcDb2dVertex
 10
71942.56740171897
 20
319237.2892973656
 30
0.0
  0
VERTEX
  5
CBA
330
B6B
100
AcDbEntity
  8
P_SV_SB_ACHS_01_1
100
AcDbVertex
100
AcDb2dVertex
 10
71941.68046902692
 20
319236.8224987822
 30
0.0
  0
VERTEX
  5
CBB
330
B6B
100
AcDbEntity
  8
P_SV_SB_ACHS_01_1
100
AcDbVertex
100
AcDb2dVertex
 10
71940.79301586397
 20
319236.3566904558
 30
0.0
  0
VERTEX
  5
CBC
330
B6B
100
AcDbEntity
  8
P_SV_SB_ACHS_01_1
100
AcDbVertex
100
AcDb2dVertex
 10
71939.90503274804
 20
319235.8918931937
 30
0.0
  0
VERTEX
  5
CBD
330
B6B
100
AcDbEntity
  8
P_SV_SB_ACHS_01_1
100
AcDbVertex
100
AcDb2dVertex
 10
71939.01651026668
 20
319235.4281278384
 30
0.0
  0
VERTEX
  5
CBE
330
B6B
100
AcDbEntity
  8
P_SV_SB_ACHS_01_1
100
AcDbVertex
100
AcDb2dVertex
 10
71938.12743907878
 20
319234.9654152678
 30
0.0
  0
VERTEX
  5
CBF
330
B6B
100
AcDbEntity
  8
P_SV_SB_ACHS_01_1
100
AcDbVertex
100
AcDb2dVertex
 10
71937.23780991596
 20
319234.5037763959
 30
0.0
  0
VERTEX
  5
CC0
330
B6B
100
AcDbEntity
  8
P_SV_SB_ACHS_01_1
100
AcDbVertex
100
AcDb2dVertex
 10
71936.34761358394
 20
319234.0432321729
 30
0.0
 42
-0.0030310405990125
  0
VERTEX
  5
CC1
330
B6B
100
AcDbEntity
  8
P_SV_SB_ACHS_01_1
100
AcDbVertex
100
AcDb2dVertex
 10
71927.70336356853
 20
319229.6441170416
 30
0.0
 42
-0.0055462909221373
  0
VERTEX
  5
CC2
330
B6B
100
AcDbEntity
  8
P_SV_SB_ACHS_01_1
100
AcDbVertex
100
AcDb2dVertex
 10
71911.75044067012
 20
319221.8671623171
 30
0.0
  0
VERTEX
  5
CC3
330
B6B
100
AcDbEntity
  8
P_SV_SB_ACHS_01_1
100
AcDbVertex
100
AcDb2dVertex
 10
71910.84443604919
 20
319221.4385528005
 30
0.0
  0
VERTEX
  5
CC4
330
B6B
100
AcDbEntity
  8
P_SV_SB_ACHS_01_1
100
AcDbVertex
100
AcDb2dVertex
 10
71909.93790489544
 20
319221.0110580488
 30
0.0
  0
VERTEX
  5
CC5
330
B6B
100
AcDbEntity
  8
P_SV_SB_ACHS_01_1
100
AcDbVertex
100
AcDb2dVertex
 10
71909.71391474503
 20
319220.9057609226
 30
0.0
  0
VERTEX
  5
CC6
330
B6B
100
AcDbEntity
  8
P_SV_SB_ACHS_01_1
100
AcDbVertex
100
AcDb2dVertex
 10
71909.03085829321
 20
319220.5846580471
 30
0.0
  0
VERTEX
  5
CC7
330
B6B
100
AcDbEntity
  8
P_SV_SB_ACHS_01_1
100
AcDbVertex
100
AcDb2dVertex
 10
71908.12330725281
 20
319220.1593327436
 30
0.0
  0
VERTEX
  5
CC8
330
B6B
100
AcDbEntity
  8
P_SV_SB_ACHS_01_1
100
AcDbVertex
100
AcDb2dVertex
 10
71907.21526271181
 20
319219.735062051
 30
0.0
  0
VERTEX
  5
CC9
330
B6B
100
AcDbEntity
  8
P_SV_SB_ACHS_01_1
100
AcDbVertex
100
AcDb2dVertex
 10
71906.30673553637
 20
319219.3118258464
 30
0.0
  0
VERTEX
  5
CCA
330
B6B
100
AcDbEntity
  8
P_SV_SB_ACHS_01_1
100
AcDbVertex
100
AcDb2dVertex
 10
71905.39773652261
 20
319218.8896039727
 30
0.0
  0
VERTEX
  5
CCB
330
B6B
100
AcDbEntity
  8
P_SV_SB_ACHS_01_1
100
AcDbVertex
100
AcDb2dVertex
 10
71904.48827639791
 20
319218.4683762393
 30
0.0
  0
VERTEX
  5
CCC
330
B6B
100
AcDbEntity
  8
P_SV_SB_ACHS_01_1
100
AcDbVertex
100
AcDb2dVertex
 10
71903.57836582222
 20
319218.0481224229
 30
0.0
  0
VERTEX
  5
CCD
330
B6B
100
AcDbEntity
  8
P_SV_SB_ACHS_01_1
100
AcDbVertex
100
AcDb2dVertex
 10
71902.66801538954
 20
319217.6288222684
 30
0.0
  0
VERTEX
  5
CCE
330
B6B
100
AcDbEntity
  8
P_SV_SB_ACHS_01_1
100
AcDbVertex
100
AcDb2dVertex
 10
71901.7572356291
 20
319217.2104554893
 30
0.0
  0
VERTEX
  5
CCF
330
B6B
100
AcDbEntity
  8
P_SV_SB_ACHS_01_1
100
AcDbVertex
100
AcDb2dVertex
 10
71900.84603700685
 20
319216.7930017692
 30
0.0
  0
VERTEX
  5
CD0
330
B6B
100
AcDbEntity
  8
P_SV_SB_ACHS_01_1
100
AcDbVertex
100
AcDb2dVertex
 10
71899.93442992673
 20
319216.3764407618
 30
0.0
  0
VERTEX
  5
CD1
330
B6B
100
AcDbEntity
  8
P_SV_SB_ACHS_01_1
100
AcDbVertex
100
AcDb2dVertex
 10
71899.02242473213
 20
319215.9607520922
 30
0.0
  0
VERTEX
  5
CD2
330
B6B
100
AcDbEntity
  8
P_SV_SB_ACHS_01_1
100
AcDbVertex
100
AcDb2dVertex
 10
71898.11003170709
 20
319215.5459153575
 30
0.0
  0
VERTEX
  5
CD3
330
B6B
100
AcDbEntity
  8
P_SV_SB_ACHS_01_1
100
AcDbVertex
100
AcDb2dVertex
 10
71897.19726107788
 20
319215.1319101275
 30
0.0
  0
VERTEX
  5
CD4
330
B6B
100
AcDbEntity
  8
P_SV_SB_ACHS_01_1
100
AcDbVertex
100
AcDb2dVertex
 10
71896.28412301417
 20
319214.7187159454
 30
0.0
  0
VERTEX
  5
CD5
330
B6B
100
AcDbEntity
  8
P_SV_SB_ACHS_01_1
100
AcDbVertex
100
AcDb2dVertex
 10
71895.37062763056
 20
319214.306312329
 30
0.0
  0
VERTEX
  5
CD6
330
B6B
100
AcDbEntity
  8
P_SV_SB_ACHS_01_1
100
AcDbVertex
100
AcDb2dVertex
 10
71894.45678498785
 20
319213.8946787706
 30
0.0
  0
VERTEX
  5
CD7
330
B6B
100
AcDbEntity
  8
P_SV_SB_ACHS_01_1
100
AcDbVertex
100
AcDb2dVertex
 10
71893.54260509451
 20
319213.4837947387
 30
0.0
  0
VERTEX
  5
CD8
330
B6B
100
AcDbEntity
  8
P_SV_SB_ACHS_01_1
100
AcDbVertex
100
AcDb2dVertex
 10
71892.62809790794
 20
319213.073639678
 30
0.0
  0
VERTEX
  5
CD9
330
B6B
100
AcDbEntity
  8
P_SV_SB_ACHS_01_1
100
AcDbVertex
100
AcDb2dVertex
 10
71891.71327333605
 20
319212.6641930102
 30
0.0
  0
VERTEX
  5
CDA
330
B6B
100
AcDbEntity
  8
P_SV_SB_ACHS_01_1
100
AcDbVertex
100
AcDb2dVertex
 10
71891.52878837108
 20
319212.5817897518
 30
0.0
  0
VERTEX
  5
CDB
330
B6B
100
AcDbEntity
  8
P_SV_SB_ACHS_01_1
100
AcDbVertex
100
AcDb2dVertex
 10
71890.79814123841
 20
319212.2554341354
 30
0.0
  0
VERTEX
  5
CDC
330
B6B
100
AcDbEntity
  8
P_SV_SB_ACHS_01_1
100
AcDbVertex
100
AcDb2dVertex
 10
71889.88271142783
 20
319211.8473424316
 30
0.0
  0
VERTEX
  5
CDD
330
B6B
100
AcDbEntity
  8
P_SV_SB_ACHS_01_1
100
AcDbVertex
100
AcDb2dVertex
 10
71888.96699367167
 20
319211.4398972567
 30
0.0
  0
VERTEX
  5
CDE
330
B6B
100
AcDbEntity
  8
P_SV_SB_ACHS_01_1
100
AcDbVertex
100
AcDb2dVertex
 10
71888.05099769327
 20
319211.0330779485
 30
0.0
  0
VERTEX
  5
CDF
330
B6B
100
AcDbEntity
  8
P_SV_SB_ACHS_01_1
100
AcDbVertex
100
AcDb2dVertex
 10
71887.1347331733
 20
319210.6268638252
 30
0.0
  0
VERTEX
  5
CE0
330
B6B
100
AcDbEntity
  8
P_SV_SB_ACHS_01_1
100
AcDbVertex
100
AcDb2dVertex
 10
71886.21820975121
 20
319210.2212341865
 30
0.0
  0
VERTEX
  5
CE1
330
B6B
100
AcDbEntity
  8
P_SV_SB_ACHS_01_1
100
AcDbVertex
100
AcDb2dVertex
 10
71885.30143702662
 20
319209.8161683144
 30
0.0
  0
VERTEX
  5
CE2
330
B6B
100
AcDbEntity
  8
P_SV_SB_ACHS_01_1
100
AcDbVertex
100
AcDb2dVertex
 10
71884.38442456069
 20
319209.4116454733
 30
0.0
  0
VERTEX
  5
CE3
330
B6B
100
AcDbEntity
  8
P_SV_SB_ACHS_01_1
100
AcDbVertex
100
AcDb2dVertex
 10
71883.46718187758
 20
319209.0076449114
 30
0.0
  0
VERTEX
  5
CE4
330
B6B
100
AcDbEntity
  8
P_SV_SB_ACHS_01_1
100
AcDbVertex
100
AcDb2dVertex
 10
71882.54971846583
 20
319208.6041458607
 30
0.0
  0
VERTEX
  5
CE5
330
B6B
100
AcDbEntity
  8
P_SV_SB_ACHS_01_1
100
AcDbVertex
100
AcDb2dVertex
 10
71881.63204377978
 20
319208.201127538
 30
0.0
  0
VERTEX
  5
CE6
330
B6B
100
AcDbEntity
  8
P_SV_SB_ACHS_01_1
100
AcDbVertex
100
AcDb2dVertex
 10
71880.71416724095
 20
319207.7985691457
 30
0.0
  0
VERTEX
  5
CE7
330
B6B
100
AcDbEntity
  8
P_SV_SB_ACHS_01_1
100
AcDbVertex
100
AcDb2dVertex
 10
71879.79609823951
 20
319207.3964498721
 30
0.0
  0
VERTEX
  5
CE8
330
B6B
100
AcDbEntity
  8
P_SV_SB_ACHS_01_1
100
AcDbVertex
100
AcDb2dVertex
 10
71878.87784613566
 20
319206.9947488924
 30
0.0
  0
VERTEX
  5
CE9
330
B6B
100
AcDbEntity
  8
P_SV_SB_ACHS_01_1
100
AcDbVertex
100
AcDb2dVertex
 10
71877.95942026104
 20
319206.5934453691
 30
0.0
  0
VERTEX
  5
CEA
330
B6B
100
AcDbEntity
  8
P_SV_SB_ACHS_01_1
100
AcDbVertex
100
AcDb2dVertex
 10
71877.04082992018
 20
319206.1925184529
 30
0.0
  0
VERTEX
  5
CEB
330
B6B
100
AcDbEntity
  8
P_SV_SB_ACHS_01_1
100
AcDbVertex
100
AcDb2dVertex
 10
71876.12208439189
 20
319205.7919472828
 30
0.0
  0
VERTEX
  5
CEC
330
B6B
100
AcDbEntity
  8
P_SV_SB_ACHS_01_1
100
AcDbVertex
100
AcDb2dVertex
 10
71875.20319293068
 20
319205.3917109877
 30
0.0
  0
VERTEX
  5
CED
330
B6B
100
AcDbEntity
  8
P_SV_SB_ACHS_01_1
100
AcDbVertex
100
AcDb2dVertex
 10
71874.28416476824
 20
319204.9917886861
 30
0.0
  0
VERTEX
  5
CEE
330
B6B
100
AcDbEntity
  8
P_SV_SB_ACHS_01_1
100
AcDbVertex
100
AcDb2dVertex
 10
71873.36500911476
 20
319204.5921594872
 30
0.0
  0
VERTEX
  5
CEF
330
B6B
100
AcDbEntity
  8
P_SV_SB_ACHS_01_1
100
AcDbVertex
100
AcDb2dVertex
 10
71873.22137938615
 20
319204.5297629223
 30
0.0
  0
VERTEX
  5
CF0
330
B6B
100
AcDbEntity
  8
P_SV_SB_ACHS_01_1
100
AcDbVertex
100
AcDb2dVertex
 10
71872.44573516046
 20
319204.1928024915
 30
0.0
  0
VERTEX
  5
CF1
330
B6B
100
AcDbEntity
  8
P_SV_SB_ACHS_01_1
100
AcDbVertex
100
AcDb2dVertex
 10
71871.52635207695
 20
319203.7936967914
 30
0.0
  0
VERTEX
  5
CF2
330
B6B
100
AcDbEntity
  8
P_SV_SB_ACHS_01_1
100
AcDbVertex
100
AcDb2dVertex
 10
71870.60686901868
 20
319203.3948214719
 30
0.0
  0
VERTEX
  5
CF3
330
B6B
100
AcDbEntity
  8
P_SV_SB_ACHS_01_1
100
AcDbVertex
100
AcDb2dVertex
 10
71869.68729512434
 20
319202.9961556107
 30
0.0
  0
VERTEX
  5
CF4
330
B6B
100
AcDbEntity
  8
P_SV_SB_ACHS_01_1
100
AcDbVertex
100
AcDb2dVertex
 10
71868.76763951836
 20
319202.59767828
 30
0.0
  0
VERTEX
  5
CF5
330
B6B
100
AcDbEntity
  8
P_SV_SB_ACHS_01_1
100
AcDbVertex
100
AcDb2dVertex
 10
71867.84791131224
 20
319202.199368546
 30
0.0
  0
VERTEX
  5
CF6
330
B6B
100
AcDbEntity
  8
P_SV_SB_ACHS_01_1
100
AcDbVertex
100
AcDb2dVertex
 10
71866.92811960607
 20
319201.8012054698
 30
0.0
  0
VERTEX
  5
CF7
330
B6B
100
AcDbEntity
  8
P_SV_SB_ACHS_01_1
100
AcDbVertex
100
AcDb2dVertex
 10
71866.00827348989
 20
319201.4031681084
 30
0.0
  0
VERTEX
  5
CF8
330
B6B
100
AcDbEntity
  8
P_SV_SB_ACHS_01_1
100
AcDbVertex
100
AcDb2dVertex
 10
71865.08838204516
 20
319201.0052355151
 30
0.0
  0
VERTEX
  5
CF9
330
B6B
100
AcDbEntity
  8
P_SV_SB_ACHS_01_1
100
AcDbVertex
100
AcDb2dVertex
 10
71864.16845434617
 20
319200.6073867398
 30
0.0
  0
VERTEX
  5
CFA
330
B6B
100
AcDbEntity
  8
P_SV_SB_ACHS_01_1
100
AcDbVertex
100
AcDb2dVertex
 10
71863.24849946152
 20
319200.2096008304
 30
0.0
  0
VERTEX
  5
CFB
330
B6B
100
AcDbEntity
  8
P_SV_SB_ACHS_01_1
100
AcDbVertex
100
AcDb2dVertex
 10
71862.32852645546
 20
319199.8118568324
 30
0.0
  0
VERTEX
  5
CFC
330
B6B
100
AcDbEntity
  8
P_SV_SB_ACHS_01_1
100
AcDbVertex
100
AcDb2dVertex
 10
71861.40854438943
 20
319199.4141337906
 30
0.0
  0
VERTEX
  5
CFD
330
B6B
100
AcDbEntity
  8
P_SV_SB_ACHS_01_1
100
AcDbVertex
100
AcDb2dVertex
 10
71854.86664135291
 20
319196.5859933825
 30
0.0
  0
VERTEX
  5
CFE
330
B6B
100
AcDbEntity
  8
P_SV_SB_ACHS_01_1
100
AcDbVertex
100
AcDb2dVertex
 10
71836.50869244437
 20
319188.6496395678
 30
0.0
  0
VERTEX
  5
CFF
330
B6B
100
AcDbEntity
  8
P_SV_SB_ACHS_01_1
100
AcDbVertex
100
AcDb2dVertex
 10
71818.15074353584
 20
319180.7132857531
 30
0.0
  0
VERTEX
  5
D00
330
B6B
100
AcDbEntity
  8
P_SV_SB_ACHS_01_1
100
AcDbVertex
100
AcDb2dVertex
 10
71805.391479
 20
319175.1973080001
 30
0.0
  0
SEQEND
  5
D01
330
B6B
100
AcDbEntity
  8
P_SV_SB_ACHS_01_1
  0
ENDSEC
  0
SECTION
  2
OBJECTS
  0
DICTIONARY
  5
C
330
0
100
AcDbDictionary
281
     1
  3
ACAD_CIP_PREVIOUS_PRODUCT_INFO
350
1A5
  3
ACAD_COLOR
350
73
  3
ACAD_DETAILVIEWSTYLE
350
1AB
  3
ACAD_GROUP
350
D
  3
ACAD_LAYOUT
350
1A
  3
ACAD_MATERIAL
350
72
  3
ACAD_MLEADERSTYLE
350
D7
  3
ACAD_MLINESTYLE
350
17
  3
ACAD_PLOTSETTINGS
350
19
  3
ACAD_PLOTSTYLENAME
350
E
  3
ACAD_SCALELIST
350
B6
  3
ACAD_SECTIONVIEWSTYLE
350
1A8
  3
ACAD_TABLESTYLE
350
86
  3
ACAD_VISUALSTYLE
350
99
  3
ACDB_RECOMPOSE_DATA
350
D08
  3
AcDbVariableDictionary
350
66
  3
AcDsDecomposeData
350
D0F
  3
ADE_QUERY_LIBRARY
350
21B
  3
AEC_PROPERTY_SET_DEFS
350
7BC
  3
ASE_INDEX_DICTIONARY
350
D03
  3
Autodesk_MAP
350
204
1001
ADE
1000
ADE02C004
1000
[Query]
1000
CaseSensitiveMatch=0
1000
SaveCurrQueryInSession=1
1000
MkSelSetWithQryObj=0
1000
ShowBlockAsInsPt=0
1000
CreateAssociativeHatchObjects=0
1000
ReferenceBoundaryForAreaLocation=1
1000
ShowImageAsBoundary=1
1000
DefaultJoinOperator=2
1000
ColorForAdd=red
1000
ColorForRemove=red
1000
BlockLocnForQuery=1
1000
TextLocnForQuery=1
1000
IncludeAllObjectsInGroups=0
1000
AlwaysUseLibraryDefinitions=0
1000
PreviewDefinitionsFrom=2
1000
[Save Back]
1000
RedefineBlockDefinitions=1
1000
RedefineLayerDefinitions=1
1000
RedefineTextStyleDefinitions=1
1000
RemoveUnusedGroups=1
1000
EraseSavedBackObjects=1
1000
RemoveLockAfterSave=1
1000
CreateHistoryFileOfChanges=0
1000
CreateBackupFileOfSourceDwg=1
1000
DontAddObjectsToSaveSet=0
1000
MarkObjectsForEditingWithoutPrompting=0
1000
FdoDontAddObjsToSvSet=0
1000
FdoEditWithoutPrompt=1
1000
FdoRemUnusedGrps=1
1000
FdoEraseSvdBkObjs=1
1000
FdoRemoveLockOnSave=1
1000
FdoTesselationMaxPointsDistance=0
1000
FdoTesselationMaxCurvesDistance=0
1000
[Coordinate Transformation]
1000
RestoreLastActiveDwgsOnStartup=1
1000
ActivateDwgsOnAttach=1
1000
AdjustSizesAndScalesForChangesInUnits=1
1000
AdjustRotationsForMapDistortions=1
1000
AdjustSizesAndScalesForMapDistortions=1
1000
AdjustElevations=1
1000
AdjustZeroRotationObjects=1
1000
ReconnectDbOnWSOpen=1
1000
NoOfSQLConditionsInHistory=10
  0
SUN
  5
217
330
94
100
AcDbSun
 90
        1
290
     1
 63
     7
421
 16777215
 40
1.0
291
     1
 91
  2458230
 92
 36000000
292
     0
 70
     0
 71
   256
280
     1
1001
ACAD
1000
AcDbSavedByObjectVersion
1070
     0
  0
DICTIONARY
  5
18E
330
2
100
AcDbDictionary
280
     1
281
     1
  3
ACAD_LAYERSTATES
360
18F
  0
DICTIONARY
  5
E6
330
10
100
AcDbDictionary
280
     1
281
     1
  0
DICTIONARY
  5
267
330
266
100
AcDbDictionary
280
     1
281
     1
  0
DICTIONARY
  5
15D
330
1F
100
AcDbDictionary
280
     1
281
     1
  3
ACAD_SORTENTS
360
214
  0
XRECORD
  5
1A5
102
{ACAD_REACTORS
330
C
102
}
330
C
100
AcDbXrecord
280
     1
300
MAP
300
2019
300

  0
DICTIONARY
  5
73
102
{ACAD_REACTORS
330
C
102
}
330
C
100
AcDbDictionary
281
     1
  0
DICTIONARY
  5
1AB
102
{ACAD_REACTORS
330
C
102
}
330
C
100
AcDbDictionary
281
     1
  3
Imperial24
350
1AC
  3
Metric50
350
239
  0
DICTIONARY
  5
D
102
{ACAD_REACTORS
330
C
102
}
330
C
100
AcDbDictionary
281
     1
  0
DICTIONARY
  5
1A
102
{ACAD_REACTORS
330
C
102
}
330
C
100
AcDbDictionary
281
     1
  3
Layout1
350
59
  3
Layout2
350
5E
  3
Model
350
22
  0
DICTIONARY
  5
72
102
{ACAD_REACTORS
330
C
102
}
330
C
100
AcDbDictionary
281
     1
  3
ByBlock
350
97
  3
ByLayer
350
96
  3
Global
350
98
  0
DICTIONARY
  5
D7
102
{ACAD_REACTORS
330
C
102
}
330
C
100
AcDbDictionary
281
     1
  3
Beschriftung
350
E5
  3
Standard
350
D8
  0
DICTIONARY
  5
17
102
{ACAD_REACTORS
330
C
102
}
330
C
100
AcDbDictionary
281
     1
  3
Standard
350
18
  0
DICTIONARY
  5
19
102
{ACAD_REACTORS
330
C
102
}
330
C
100
AcDbDictionary
281
     1
  0
ACDBDICTIONARYWDFLT
  5
E
102
{ACAD_REACTORS
330
C
102
}
330
C
100
AcDbDictionary
281
     1
  3
Normal
350
F
100
AcDbDictionaryWithDefault
340
F
  0
DICTIONARY
  5
B6
102
{ACAD_REACTORS
330
C
102
}
330
C
100
AcDbDictionary
281
     1
  3
*A1
350
272
  3
*A2
350
273
  3
A0
350
B7
  3
A1
350
124
  3
A2
350
125
  3
A3
350
126
  3
A4
350
127
  3
A5
350
128
  3
A6
350
129
  3
A7
350
12A
  3
A8
350
12B
  3
A9
350
12C
  3
B0
350
12D
  3
B1
350
12E
  3
B2
350
12F
  3
B3
350
130
  3
B4
350
131
  3
B5
350
132
  3
B6
350
133
  3
B7
350
134
  3
B8
350
135
  3
B9
350
136
  3
C0
350
137
  3
C1
350
138
  3
C2
350
139
  3
C3
350
13A
  3
C4
350
13B
  3
C5
350
13C
  3
C6
350
13D
  3
C7
350
13E
  3
C8
350
13F
  3
C9
350
140
  3
D0
350
141
  3
D1
350
142
  3
D2
350
143
  0
DICTIONARY
  5
1A8
102
{ACAD_REACTORS
330
C
102
}
330
C
100
AcDbDictionary
281
     1
  3
Imperial24
350
1AA
  3
Metric50
350
238
  0
DICTIONARY
  5
86
102
{ACAD_REACTORS
330
C
102
}
330
C
100
AcDbDictionary
281
     1
  3
Legend
350
20D
  3
Standard
350
87
  0
DICTIONARY
  5
99
102
{ACAD_REACTORS
330
C
102
}
330
C
100
AcDbDictionary
281
     1
  3
2dWireframe
350
9F
  3
3dWireframe
350
271
  3
Basic
350
9E
  3
Brighten
350
A5
  3
ColorChange
350
A9
  3
Conceptual
350
A2
  3
Dim
350
A4
  3
EdgeColorOff
350
175
  3
Facepattern
350
A8
  3
Flat
350
9A
  3
FlatWithEdges
350
9B
  3
Gouraud
350
9C
  3
GouraudWithEdges
350
9D
  3
Hidden
350
A1
  3
JitterOff
350
173
  3
Linepattern
350
A7
  3
OverhangOff
350
174
  3
Realistic
350
A3
  3
Shaded
350
182
  3
Shaded with edges
350
181
  3
Shades of Gray
350
17E
  3
Sketchy
350
17F
  3
Thicken
350
A6
  3
Wireframe
350
A0
  3
X-Ray
350
180
  0
XRECORD
  5
D08
102
{ACAD_REACTORS
330
C
102
}
330
C
100
AcDbXrecord
280
     1
 90
        1
330
87
330
20D
  0
DICTIONARY
  5
66
102
{ACAD_REACTORS
330
C
102
}
330
C
100
AcDbDictionary
281
     1
  3
CANNOSCALE
350
F0
  3
CMLEADERSTYLE
350
EF
  3
CTABLESTYLE
350
89
  3
CVIEWDETAILSTYLE
350
1B7
  3
CVIEWSECTIONSTYLE
350
1B8
  3
DIMASSOC
350
67
  3
HIDETEXT
350
6B
  3
LAYEREVAL
350
14D
  3
LAYERNOTIFY
350
14E
  0
DICTIONARY
  5
D0F
102
{ACAD_REACTORS
330
C
102
}
330
C
100
AcDbDictionary
281
     1
  3
AcDsRecords
350
D11
  3
AcDsSchemas
350
D10
1001
ACAD
1070
     2
  0
DICTIONARY
  5
21B
102
{ACAD_REACTORS
330
C
102
}
330
C
100
AcDbDictionary
281
     1
  3
_CurrQry
350
D02
  0
DICTIONARY
  5
7BC
102
{ACAD_REACTORS
330
C
102
}
330
C
100
AcDbDictionary
281
     1
  0
DICTIONARY
  5
D03
102
{ACAD_REACTORS
330
C
102
}
330
C
100
AcDbDictionary
281
     1
  3
ASEBlockHierarchyIndexRecord
350
D04
1001
DCO15
1040
2043398754.0
  0
DICTIONARY
  5
204
102
{ACAD_REACTORS
330
C
102
}
330
C
100
AcDbDictionary
281
     1
  3
AcMapDMStylizedEntities
350
215
  3
AcMapResourceManager
350
209
  3
MAP_DISPLAY_CUSTOMOBJ_REG_TABLE
350
208
  3
MAP_DISPLAY_MANAGEMENT_DICTIONARY
350
205
  3
MAP_DISPLAY_STYLELIBRARY_DICTIONARY
350
206
  3
MAP_RESOURCE_VERSION_MANAGEMENT_DICTIONARY
350
216
1001
MapGWS
1000
C:\ProgramData\Autodesk\Autodesk AutoCAD Map 3D 2019\R23.0\MapCache\Achse_RaenderGWS.xml
  0
DICTIONARY
  5
18F
102
{ACAD_REACTORS
330
18E
102
}
330
18E
100
AcDbDictionary
281
     1
  0
SORTENTSTABLE
  5
214
102
{ACAD_REACTORS
330
15D
102
}
330
15D
100
AcDbSortentsTable
330
1F
  0
ACDBDETAILVIEWSTYLE
  5
1AC
102
{ACAD_XDICTIONARY
360
D14
102
}
102
{ACAD_REACTORS
330
1AB
102
}
330
1AB
100
AcDbModelDocViewStyle
 70
     0
  3
Imperial24
290
     0
100
AcDbDetailViewStyle
 70
     0
 71
     0
 90
        3
 71
     1
340
11
 62
   256
 40
0.24
340
0
 62
   256
 40
0.24
300

 40
0.36
280
     3
 71
     2
340
16
 90
       25
 62
   256
 71
     3
340
11
 62
   256
 40
0.24
 90
        1
 40
0.75
 90
        1
300
%<\AcVar ViewType \f "%tc1">% %<\AcVar ViewDetailId>%\PSCALE %<\AcVar ViewScale \f "%sn">%
 71
     4
340
16
 90
       25
 62
   256
340
16
 90
       25
 62
   256
280
     0
  0
ACDBDETAILVIEWSTYLE
  5
239
102
{ACAD_XDICTIONARY
360
D18
102
}
102
{ACAD_REACTORS
330
1AB
102
}
330
1AB
100
AcDbModelDocViewStyle
 70
     0
  3
Metric50
290
     0
100
AcDbDetailViewStyle
 70
     0
 71
     0
 90
        3
 71
     1
340
11
 62
   256
 40
5.0
340
0
 62
   256
 40
5.0
300

 40
0.0
280
     1
 71
     2
340
16
 90
       25
 62
   256
 71
     3
340
11
 62
   256
 40
5.0
 90
        0
 40
15.0
 90
        1
300
%<\AcVar ViewDetailId>% (%<\AcVar ViewScale \f "%sn">%)
 71
     4
340
16
 90
       25
 62
   256
340
16
 90
       25
 62
   256
280
     0
  0
LAYOUT
  5
59
102
{ACAD_REACTORS
330
1A
102
}
330
1A
100
AcDbPlotSettings
  1

  2
None
  4

  6

 40
0.0
 41
0.0
 42
0.0
 43
0.0
 44
0.0
 45
0.0
 46
0.0
 47
0.0
 48
0.0
 49
0.0
140
0.0
141
0.0
142
1.0
143
1.0
 70
   688
 72
     0
 73
     0
 74
     5
  7

 75
    16
147
1.0
 76
     0
 77
     2
 78
   300
148
0.0
149
0.0
100
AcDbLayout
  1
Layout1
 70
     1
 71
     1
 10
0.0
 20
0.0
 11
12.0
 21
9.0
 12
0.0
 22
0.0
 32
0.0
 14
0.0
 24
0.0
 34
0.0
 15
0.0
 25
0.0
 35
0.0
146
0.0
 13
0.0
 23
0.0
 33
0.0
 16
1.0
 26
0.0
 36
0.0
 17
0.0
 27
1.0
 37
0.0
 76
     0
330
58
  0
LAYOUT
  5
5E
102
{ACAD_REACTORS
330
1A
102
}
330
1A
100
AcDbPlotSettings
  1

  2
None
  4

  6

 40
0.0
 41
0.0
 42
0.0
 43
0.0
 44
0.0
 45
0.0
 46
0.0
 47
0.0
 48
0.0
 49
0.0
140
0.0
141
0.0
142
1.0
143
1.0
 70
   688
 72
     0
 73
     0
 74
     5
  7

 75
    16
147
1.0
 76
     0
 77
     2
 78
   300
148
0.0
149
0.0
100
AcDbLayout
  1
Layout2
 70
     1
 71
     2
 10
0.0
 20
0.0
 11
12.0
 21
9.0
 12
0.0
 22
0.0
 32
0.0
 14
0.0
 24
0.0
 34
0.0
 15
0.0
 25
0.0
 35
0.0
146
0.0
 13
0.0
 23
0.0
 33
0.0
 16
1.0
 26
0.0
 36
0.0
 17
0.0
 27
1.0
 37
0.0
 76
     0
330
5D
  0
LAYOUT
  5
22
102
{ACAD_XDICTIONARY
360
194
102
}
102
{ACAD_REACTORS
330
1A
102
}
330
1A
100
AcDbPlotSettings
  1

  2
none_device
  4
ANSI_A_(8.50_x_11.00_Inches)
  6

 40
6.349999904632568
 41
19.04999923706055
 42
6.350006103515625
 43
19.04998779296875
 44
215.8999938964844
 45
279.3999938964844
 46
0.0
 47
0.0
 48
0.0
 49
0.0
140
0.0
141
0.0
142
1.0
143
2.584895464708373
 70
 11952
 72
     0
 73
     1
 74
     0
  7

 75
     0
147
0.3868628397755418
 76
     0
 77
     2
 78
   300
148
0.0
149
0.0
100
AcDbLayout
  1
Model
 70
     1
 71
     0
 10
0.0
 20
0.0
 11
12.0
 21
9.0
 12
0.0
 22
0.0
 32
0.0
 14
0.0
 24
0.0
 34
0.0
 15
0.0
 25
0.0
 35
0.0
146
0.0
 13
0.0
 23
0.0
 33
0.0
 16
1.0
 26
0.0
 36
0.0
 17
0.0
 27
1.0
 37
0.0
 76
     0
330
1F
331
94
  0
MATERIAL
  5
97
102
{ACAD_XDICTIONARY
360
188
102
}
102
{ACAD_REACTORS
330
72
102
}
330
72
100
AcDbMaterial
  1
ByBlock
 94
       63
  0
MATERIAL
  5
96
102
{ACAD_XDICTIONARY
360
186
102
}
102
{ACAD_REACTORS
330
72
102
}
330
72
100
AcDbMaterial
  1
ByLayer
 94
       63
  0
MATERIAL
  5
98
102
{ACAD_XDICTIONARY
360
110
102
}
102
{ACAD_REACTORS
330
72
102
}
330
72
100
AcDbMaterial
  1
Global
 43
0.0208000000566244
 43
0.0
 43
0.0
 43
0.0
 43
0.0
 43
0.0208000000566244
 43
0.0
 43
0.0
 43
0.0
 43
0.0
 43
1.0
 43
0.0
 43
0.0
 43
0.0
 43
0.0
 43
1.0
 49
0.0208000000566244
 49
0.0
 49
0.0
 49
0.0
 49
0.0
 49
0.0208000000566244
 49
0.0
 49
0.0
 49
0.0
 49
0.0
 49
1.0
 49
0.0
 49
0.0
 49
0.0
 49
0.0
 49
1.0
142
0.0208000000566244
142
0.0
142
0.0
142
0.0
142
0.0
142
0.0208000000566244
142
0.0
142
0.0
142
0.0
142
0.0
142
1.0
142
0.0
142
0.0
142
0.0
142
0.0
142
1.0
144
0.0208000000566244
144
0.0
144
0.0
144
0.0
144
0.0
144
0.0208000000566244
144
0.0
144
0.0
144
0.0
144
0.0
144
1.0
144
0.0
144
0.0
144
0.0
144
0.0
144
1.0
 94
       63
1001
ACAD
1070
    -1
1070
     3
1070
     0
1000

1071
        0
1070
     0
  0
MLEADERSTYLE
  5
E5
102
{ACAD_REACTORS
330
D7
102
}
330
D7
100
AcDbMLeaderStyle
179
     2
170
     2
171
     1
172
     0
 90
        2
 40
0.0
 41
0.0
173
     1
 91
-1056964608
340
14
 92
       -2
290
     1
 42
0.09
291
     1
 43
0.36
  3
Standard
 44
0.18
300

342
11
174
     1
178
     1
175
     1
176
     0
 93
-1056964608
 45
0.18
292
     0
297
     0
 46
0.18
 94
-1056964608
 47
1.0
 49
1.0
140
1.0
293
     1
141
0.0
294
     1
177
     0
142
1.0
295
     0
296
     1
143
0.125
271
     0
272
     9
273
     9
298
     0
  0
MLEADERSTYLE
  5
D8
102
{ACAD_REACTORS
330
D7
102
}
330
D7
100
AcDbMLeaderStyle
179
     2
170
     2
171
     1
172
     0
 90
        2
 40
0.0
 41
0.0
173
     1
 91
-1056964608
340
14
 92
       -2
290
     1
 42
0.09
291
     1
 43
0.36
  3
Standard
 44
0.18
300

342
11
174
     1
178
     1
175
     1
176
     0
 93
-1056964608
 45
0.18
292
     0
297
     0
 46
0.18
 94
-1056964608
 47
1.0
 49
1.0
140
1.0
293
     1
141
0.0
294
     1
177
     0
142
1.0
295
     0
296
     0
143
0.125
271
     0
272
     9
273
     9
298
     0
  0
MLINESTYLE
  5
18
102
{ACAD_REACTORS
330
17
102
}
330
17
100
AcDbMlineStyle
  2
STANDARD
 70
     0
  3

 62
   256
 51
90.0
 52
90.0
 71
     2
 49
0.5
 62
   256
  6
BYLAYER
 49
-0.5
 62
   256
  6
BYLAYER
  0
ACDBPLACEHOLDER
  5
F
102
{ACAD_REACTORS
330
E
102
}
330
E
  0
SCALE
  5
272
102
{ACAD_REACTORS
330
B6
102
}
330
B6
100
AcDbScale
 70
     0
300
1:200
140
1.0
141
0.2
290
     0
  0
SCALE
  5
273
102
{ACAD_REACTORS
330
B6
102
}
330
B6
100
AcDbScale
 70
     0
300
1:1000
140
1.0
141
1.0
290
     0
  0
SCALE
  5
B7
102
{ACAD_REACTORS
330
B6
102
}
330
B6
100
AcDbScale
 70
     0
300
1:1
140
1.0
141
1.0
290
     1
  0
SCALE
  5
124
102
{ACAD_REACTORS
330
B6
102
}
330
B6
100
AcDbScale
 70
     0
300
1:2
140
1.0
141
2.0
290
     0
  0
SCALE
  5
125
102
{ACAD_REACTORS
330
B6
102
}
330
B6
100
AcDbScale
 70
     0
300
1:4
140
1.0
141
4.0
290
     0
  0
SCALE
  5
126
102
{ACAD_REACTORS
330
B6
102
}
330
B6
100
AcDbScale
 70
     0
300
1:5
140
1.0
141
5.0
290
     0
  0
SCALE
  5
127
102
{ACAD_REACTORS
330
B6
102
}
330
B6
100
AcDbScale
 70
     0
300
1:8
140
1.0
141
8.0
290
     0
  0
SCALE
  5
128
102
{ACAD_REACTORS
330
B6
102
}
330
B6
100
AcDbScale
 70
     0
300
1:10
140
1.0
141
10.0
290
     0
  0
SCALE
  5
129
102
{ACAD_REACTORS
330
B6
102
}
330
B6
100
AcDbScale
 70
     0
300
1:16
140
1.0
141
16.0
290
     0
  0
SCALE
  5
12A
102
{ACAD_REACTORS
330
B6
102
}
330
B6
100
AcDbScale
 70
     0
300
1:20
140
1.0
141
20.0
290
     0
  0
SCALE
  5
12B
102
{ACAD_REACTORS
330
B6
102
}
330
B6
100
AcDbScale
 70
     0
300
1:30
140
1.0
141
30.0
290
     0
  0
SCALE
  5
12C
102
{ACAD_REACTORS
330
B6
102
}
330
B6
100
AcDbScale
 70
     0
300
1:40
140
1.0
141
40.0
290
     0
  0
SCALE
  5
12D
102
{ACAD_REACTORS
330
B6
102
}
330
B6
100
AcDbScale
 70
     0
300
1:50
140
1.0
141
50.0
290
     0
  0
SCALE
  5
12E
102
{ACAD_REACTORS
330
B6
102
}
330
B6
100
AcDbScale
 70
     0
300
1:100
140
1.0
141
100.0
290
     0
  0
SCALE
  5
12F
102
{ACAD_REACTORS
330
B6
102
}
330
B6
100
AcDbScale
 70
     0
300
2:1
140
2.0
141
1.0
290
     0
  0
SCALE
  5
130
102
{ACAD_REACTORS
330
B6
102
}
330
B6
100
AcDbScale
 70
     0
300
4:1
140
4.0
141
1.0
290
     0
  0
SCALE
  5
131
102
{ACAD_REACTORS
330
B6
102
}
330
B6
100
AcDbScale
 70
     0
300
8:1
140
8.0
141
1.0
290
     0
  0
SCALE
  5
132
102
{ACAD_REACTORS
330
B6
102
}
330
B6
100
AcDbScale
 70
     0
300
10:1
140
10.0
141
1.0
290
     0
  0
SCALE
  5
133
102
{ACAD_REACTORS
330
B6
102
}
330
B6
100
AcDbScale
 70
     0
300
100:1
140
100.0
141
1.0
290
     0
  0
SCALE
  5
134
102
{ACAD_REACTORS
330
B6
102
}
330
B6
100
AcDbScale
 70
     0
300
1/128" = 1'-0"
140
0.0078125
141
12.0
290
     0
  0
SCALE
  5
135
102
{ACAD_REACTORS
330
B6
102
}
330
B6
100
AcDbScale
 70
     0
300
1/64" = 1'-0"
140
0.015625
141
12.0
290
     0
  0
SCALE
  5
136
102
{ACAD_REACTORS
330
B6
102
}
330
B6
100
AcDbScale
 70
     0
300
1/32" = 1'-0"
140
0.03125
141
12.0
290
     0
  0
SCALE
  5
137
102
{ACAD_REACTORS
330
B6
102
}
330
B6
100
AcDbScale
 70
     0
300
1/16" = 1'-0"
140
0.0625
141
12.0
290
     0
  0
SCALE
  5
138
102
{ACAD_REACTORS
330
B6
102
}
330
B6
100
AcDbScale
 70
     0
300
3/32" = 1'-0"
140
0.09375
141
12.0
290
     0
  0
SCALE
  5
139
102
{ACAD_REACTORS
330
B6
102
}
330
B6
100
AcDbScale
 70
     0
300
1/8" = 1'-0"
140
0.125
141
12.0
290
     0
  0
SCALE
  5
13A
102
{ACAD_REACTORS
330
B6
102
}
330
B6
100
AcDbScale
 70
     0
300
3/16" = 1'-0"
140
0.1875
141
12.0
290
     0
  0
SCALE
  5
13B
102
{ACAD_REACTORS
330
B6
102
}
330
B6
100
AcDbScale
 70
     0
300
1/4" = 1'-0"
140
0.25
141
12.0
290
     0
  0
SCALE
  5
13C
102
{ACAD_REACTORS
330
B6
102
}
330
B6
100
AcDbScale
 70
     0
300
3/8" = 1'-0"
140
0.375
141
12.0
290
     0
  0
SCALE
  5
13D
102
{ACAD_REACTORS
330
B6
102
}
330
B6
100
AcDbScale
 70
     0
300
1/2" = 1'-0"
140
0.5
141
12.0
290
     0
  0
SCALE
  5
13E
102
{ACAD_REACTORS
330
B6
102
}
330
B6
100
AcDbScale
 70
     0
300
3/4" = 1'-0"
140
0.75
141
12.0
290
     0
  0
SCALE
  5
13F
102
{ACAD_REACTORS
330
B6
102
}
330
B6
100
AcDbScale
 70
     0
300
1" = 1'-0"
140
1.0
141
12.0
290
     0
  0
SCALE
  5
140
102
{ACAD_REACTORS
330
B6
102
}
330
B6
100
AcDbScale
 70
     0
300
1-1/2" = 1'-0"
140
1.5
141
12.0
290
     0
  0
SCALE
  5
141
102
{ACAD_REACTORS
330
B6
102
}
330
B6
100
AcDbScale
 70
     0
300
3" = 1'-0"
140
3.0
141
12.0
290
     0
  0
SCALE
  5
142
102
{ACAD_REACTORS
330
B6
102
}
330
B6
100
AcDbScale
 70
     0
300
6" = 1'-0"
140
6.0
141
12.0
290
     0
  0
SCALE
  5
143
102
{ACAD_REACTORS
330
B6
102
}
330
B6
100
AcDbScale
 70
     0
300
1'-0" = 1'-0"
140
12.0
141
12.0
290
     0
  0
ACDBSECTIONVIEWSTYLE
  5
1AA
102
{ACAD_XDICTIONARY
360
D12
102
}
102
{ACAD_REACTORS
330
1A8
102
}
330
1A8
100
AcDbModelDocViewStyle
 70
     0
  3
Imperial24
290
     0
100
AcDbSectionViewStyle
 70
     0
 71
     0
 90
       78
 71
     1
340
11
 62
   256
 40
0.24
340
0
340
0
 62
   256
 40
0.24
300
I, O, Q, S, X, Z
 40
0.48
 90
        3
 40
0.18
 90
        1
 71
     2
340
16
 90
       25
 62
   256
340
16
 90
       50
 62
   256
 40
0.24
 40
0.0
 40
0.24
 71
     3
340
11
 62
   256
 40
0.24
 90
        1
 40
0.75
 90
        1
300
%<\AcVar ViewType \f "%tc1">% %<\AcVar ViewSectionStartId>%-%<\AcVar ViewSectionEndId>%\PSCALE %<\AcVar ViewScale \f "%sn">%
 71
     4
 62
   256
 62
   257
300
ANSI31
 40
1.0
 90
        0
290
     0
290
     0
 90
        6
 40
0.0
 40
1.570796326794896
 40
0.2617993877991494
 40
1.308996938995747
 40
-0.2617993877991494
 40
1.832595714594046
  0
ACDBSECTIONVIEWSTYLE
  5
238
102
{ACAD_XDICTIONARY
360
D16
102
}
102
{ACAD_REACTORS
330
1A8
102
}
330
1A8
100
AcDbModelDocViewStyle
 70
     0
  3
Metric50
290
     0
100
AcDbSectionViewStyle
 70
     0
 71
     0
 90
      102
 71
     1
340
11
 62
   256
 40
5.0
340
0
340
0
 62
   256
 40
5.0
300
I, O, Q, S, X, Z
 40
10.0
 90
        0
 40
2.5
 90
        0
 71
     2
340
16
 90
       25
 62
   256
340
16
 90
       50
 62
   256
 40
5.0
 40
2.5
 40
5.0
 71
     3
340
11
 62
   256
 40
5.0
 90
        0
 40
15.0
 90
        1
300
%<\AcVar ViewSectionStartId>%-%<\AcVar ViewSectionEndId>% (%<\AcVar ViewScale \f "%sn">%)
 71
     4
 62
   256
 62
   257
300
ANSI31
 40
1.0
 90
        0
290
     0
290
     0
 90
        6
 40
0.0
 40
1.570796326794896
 40
0.2617993877991494
 40
1.308996938995747
 40
-0.2617993877991494
 40
1.832595714594046
  0
TABLESTYLE
  5
20D
102
{ACAD_XDICTIONARY
360
D06
102
}
102
{ACAD_REACTORS
330
86
102
}
330
86
100
AcDbTableStyle
280
     0
  3

 70
     0
 71
     3
 40
0.06
 41
0.06
280
     0
281
     0
  7
Legend
140
0.18
170
     4
 62
     0
 63
     7
283
     0
 90
      512
 91
        0
  1

274
    -2
284
     0
 64
     0
275
    -2
285
     0
 65
     0
276
    -2
286
     0
 66
     0
277
    -2
287
     0
 67
     0
278
    -2
288
     0
 68
     0
279
    -2
289
     0
 69
     0
  7
Legend
140
0.25
170
     5
 62
     0
 63
     7
283
     0
 90
      512
 91
        0
  1

274
    -2
284
     0
 64
     0
275
    -2
285
     0
 65
     0
276
    -2
286
     0
 66
     0
277
    -2
287
     0
 67
     0
278
    -2
288
     0
 68
     0
279
    -2
289
     0
 69
     0
  7
Legend
140
0.18
170
     4
 62
     0
 63
     7
283
     0
 90
      512
 91
        0
  1

274
    -2
284
     0
 64
     0
275
    -2
285
     0
 65
     0
276
    -2
286
     0
 66
     0
277
    -2
287
     0
 67
     0
278
    -2
288
     0
 68
     0
279
    -2
289
     0
 69
     0
  0
TABLESTYLE
  5
87
102
{ACAD_XDICTIONARY
360
104
102
}
102
{ACAD_REACTORS
330
86
102
}
330
86
100
AcDbTableStyle
280
     0
  3
Standard
 70
     0
 71
     0
 40
0.06
 41
0.06
280
     0
281
     0
  7
Standard
140
0.18
170
     2
 62
     0
 63
     7
283
     0
 90
      512
 91
        0
  1

274
    -2
284
     1
 64
     0
275
    -2
285
     1
 65
     0
276
    -2
286
     1
 66
     0
277
    -2
287
     1
 67
     0
278
    -2
288
     1
 68
     0
279
    -2
289
     1
 69
     0
  7
Standard
140
0.25
170
     5
 62
     0
 63
     7
283
     0
 90
      512
 91
        0
  1

274
    -2
284
     1
 64
     0
275
    -2
285
     1
 65
     0
276
    -2
286
     1
 66
     0
277
    -2
287
     1
 67
     0
278
    -2
288
     1
 68
     0
279
    -2
289
     1
 69
     0
  7
Standard
140
0.18
170
     5
 62
     0
 63
     7
283
     0
 90
      512
 91
        0
  1

274
    -2
284
     1
 64
     0
275
    -2
285
     1
 65
     0
276
    -2
286
     1
 66
     0
277
    -2
287
     1
 67
     0
278
    -2
288
     1
 68
     0
279
    -2
289
     1
 69
     0
  0
VISUALSTYLE
  5
9F
102
{ACAD_REACTORS
330
99
102
}
330
99
100
AcDbVisualStyle
  2
2dWireframe
 70
     4
177
     3
291
     0
 70
    58
 90
        0
176
     1
 90
        2
176
     1
 90
        1
176
     1
 90
        0
176
     1
 40
0.6
176
     1
 40
30.0
176
     1
 62
     7
420
 16777215
176
     1
 90
        1
176
     1
 90
        4
176
     1
 62
     7
176
     1
 62
   257
176
     1
 90
        1
176
     1
 90
        1
176
     1
 40
1.0
176
     1
 90
        0
176
     1
 62
   257
176
     1
 40
1.0
176
     1
 90
        1
176
     1
 90
        6
176
     1
 90
        2
176
     1
 62
     7
176
     1
 90
        5
176
     1
 90
        0
176
     1
 90
        0
176
     1
290
     0
176
     1
 90
        1
176
     1
 40
0.0
176
     1
 90
        0
176
     1
290
     1
176
     1
290
     1
176
     1
290
     0
176
     1
290
     0
176
     1
290
     0
176
     1
290
     0
176
     1
290
     0
176
     1
290
     0
176
     1
290
     0
176
     1
 90
       50
176
     1
 40
0.0
176
     1
 40
1.0
176
     1
 90
        0
176
     1
 62
    18
420
        0
176
     1
 90
       50
176
     1
 90
        3
176
     1
 62
     5
420
      255
176
     1
290
     0
176
     1
 90
       50
176
     1
 90
       50
176
     1
 90
       50
176
     1
290
     0
176
     1
 90
       50
176
     1
 62
   256
176
     0
 40
1.0
176
     0
 90
        2
176
     1
  1
strokes_ogs.tif
176
     1
290
     0
176
     1
 40
1.0
176
     1
 40
1.0
176
     1
1001
ACAD
1000
AcDbSavedByObjectVersion
1070
     0
  0
VISUALSTYLE
  5
271
102
{ACAD_REACTORS
330
99
102
}
330
99
100
AcDbVisualStyle
  2
3dWireframe
 70
     5
177
     3
291
     0
 70
    58
 90
        0
176
     1
 90
        2
176
     1
 90
        1
176
     1
 90
        0
176
     1
 40
0.6
176
     1
 40
30.0
176
     1
 62
     7
420
 16777215
176
     1
 90
        1
176
     1
 90
        4
176
     1
 62
     7
176
     1
 62
   257
176
     1
 90
        1
176
     1
 90
        1
176
     1
 40
1.0
176
     1
 90
        0
176
     1
 62
   257
176
     1
 40
1.0
176
     1
 90
        1
176
     1
 90
        6
176
     1
 90
        2
176
     1
 62
     7
176
     1
 90
        5
176
     1
 90
        0
176
     1
 90
        0
176
     1
290
     0
176
     1
 90
        1
176
     1
 40
0.0
176
     1
 90
        0
176
     1
290
     0
176
     1
290
     1
176
     1
290
     1
176
     1
290
     0
176
     1
290
     0
176
     1
290
     0
176
     1
290
     0
176
     1
290
     0
176
     1
290
     0
176
     1
 90
       50
176
     1
 40
0.0
176
     1
 40
1.0
176
     1
 90
        0
176
     1
 62
    18
420
        0
176
     1
 90
       50
176
     1
 90
        3
176
     1
 62
     5
420
      255
176
     1
290
     0
176
     1
 90
       50
176
     1
 90
       50
176
     1
 90
       50
176
     1
290
     0
176
     1
 90
       50
176
     1
 62
   256
176
     0
 40
1.0
176
     0
 90
        2
176
     1
  1
strokes_ogs.tif
176
     1
290
     0
176
     1
 40
1.0
176
     1
 40
1.0
176
     1
1001
ACAD
1000
AcDbSavedByObjectVersion
1070
     0
  0
VISUALSTYLE
  5
9E
102
{ACAD_REACTORS
330
99
102
}
330
99
100
AcDbVisualStyle
  2
Basic
 70
     7
177
     3
291
     1
 70
    58
 90
        1
176
     1
 90
        0
176
     1
 90
        1
176
     1
 90
        0
176
     1
 40
0.6
176
     1
 40
30.0
176
     1
 62
     7
420
 16777215
176
     1
 90
        0
176
     1
 90
        4
176
     1
 62
     7
176
     1
 62
   257
176
     1
 90
        1
176
     1
 90
        1
176
     1
 40
1.0
176
     1
 90
        8
176
     1
 62
     7
176
     1
 40
1.0
176
     1
 90
        1
176
     1
 90
        6
176
     1
 90
        2
176
     1
 62
     7
176
     1
 90
        5
176
     1
 90
        0
176
     1
 90
        0
176
     1
290
     0
176
     1
 90
        1
176
     1
 40
0.0
176
     1
 90
        0
176
     1
290
     0
176
     1
290
     1
176
     1
290
     1
176
     1
290
     0
176
     1
290
     0
176
     1
290
     0
176
     1
290
     0
176
     1
290
     0
176
     1
290
     0
176
     1
 90
       50
176
     1
 40
0.0
176
     1
 40
1.0
176
     1
 90
        0
176
     1
 62
    18
420
        0
176
     1
 90
       50
176
     1
 90
        3
176
     1
 62
     5
420
      255
176
     1
290
     0
176
     1
 90
       50
176
     1
 90
       50
176
     1
 90
       50
176
     1
290
     0
176
     1
 90
       50
176
     1
 62
   256
176
     0
 40
1.0
176
     0
 90
        2
176
     1
  1
strokes_ogs.tif
176
     1
290
     0
176
     1
 40
1.0
176
     1
 40
1.0
176
     1
1001
ACAD
1000
AcDbSavedByObjectVersion
1070
     0
  0
VISUALSTYLE
  5
A5
102
{ACAD_REACTORS
330
99
102
}
330
99
100
AcDbVisualStyle
  2
Brighten
 70
    12
177
     3
291
     1
 70
    58
 90
        2
176
     1
 90
        2
176
     1
 90
        1
176
     1
 90
        0
176
     1
 40
0.6
176
     1
 40
30.0
176
     1
 62
     7
420
 16777215
176
     1
 90
        1
176
     1
 90
        4
176
     1
 62
     7
176
     1
 62
   257
176
     1
 90
        1
176
     1
 90
        1
176
     1
 40
1.0
176
     1
 90
        8
176
     1
 62
     7
176
     1
 40
1.0
176
     1
 90
        1
176
     1
 90
        6
176
     1
 90
        2
176
     1
 62
     7
176
     1
 90
        5
176
     1
 90
        0
176
     1
 90
        0
176
     1
290
     0
176
     1
 90
        1
176
     1
 40
50.0
176
     1
 90
        0
176
     1
290
     0
176
     1
290
     1
176
     1
290
     1
176
     1
290
     0
176
     1
290
     0
176
     1
290
     0
176
     1
290
     0
176
     1
290
     0
176
     1
290
     0
176
     1
 90
       50
176
     1
 40
0.0
176
     1
 40
1.0
176
     1
 90
        0
176
     1
 62
    18
420
        0
176
     1
 90
       50
176
     1
 90
        3
176
     1
 62
     5
420
      255
176
     1
290
     0
176
     1
 90
       50
176
     1
 90
       50
176
     1
 90
       50
176
     1
290
     0
176
     1
 90
       50
176
     1
 62
   256
176
     0
 40
1.0
176
     0
 90
        2
176
     1
  1
strokes_ogs.tif
176
     1
290
     0
176
     1
 40
1.0
176
     1
 40
1.0
176
     1
1001
ACAD
1000
AcDbSavedByObjectVersion
1070
     0
  0
VISUALSTYLE
  5
A9
102
{ACAD_REACTORS
330
99
102
}
330
99
100
AcDbVisualStyle
  2
ColorChange
 70
    16
177
     3
291
     1
 70
    58
 90
        2
176
     1
 90
        2
176
     1
 90
        3
176
     1
 90
        0
176
     1
 40
0.6
176
     1
 40
30.0
176
     1
 62
     8
420
  8421504
176
     1
 90
        1
176
     1
 90
        4
176
     1
 62
     7
176
     1
 62
   257
176
     1
 90
        1
176
     1
 90
        1
176
     1
 40
1.0
176
     1
 90
        8
176
     1
 62
     8
420
  8421504
176
     1
 40
1.0
176
     1
 90
        1
176
     1
 90
        6
176
     1
 90
        2
176
     1
 62
     7
176
     1
 90
        5
176
     1
 90
        0
176
     1
 90
        0
176
     1
290
     0
176
     1
 90
        1
176
     1
 40
0.0
176
     1
 90
        0
176
     1
290
     0
176
     1
290
     1
176
     1
290
     1
176
     1
290
     0
176
     1
290
     0
176
     1
290
     0
176
     1
290
     0
176
     1
290
     0
176
     1
290
     0
176
     1
 90
       50
176
     1
 40
0.0
176
     1
 40
1.0
176
     1
 90
        0
176
     1
 62
    18
420
        0
176
     1
 90
       50
176
     1
 90
        3
176
     1
 62
     5
420
      255
176
     1
290
     0
176
     1
 90
       50
176
     1
 90
       50
176
     1
 90
       50
176
     1
290
     0
176
     1
 90
       50
176
     1
 62
   256
176
     0
 40
1.0
176
     0
 90
        2
176
     1
  1
strokes_ogs.tif
176
     1
290
     0
176
     1
 40
1.0
176
     1
 40
1.0
176
     1
1001
ACAD
1000
AcDbSavedByObjectVersion
1070
     0
  0
VISUALSTYLE
  5
A2
102
{ACAD_REACTORS
330
99
102
}
330
99
100
AcDbVisualStyle
  2
Conceptual
 70
     9
177
     3
291
     0
 70
    58
 90
        3
176
     1
 90
        2
176
     1
 90
        1
176
     1
 90
        0
176
     1
 40
0.6
176
     1
 40
30.0
176
     1
 62
     7
420
 16777215
176
     1
 90
        2
176
     1
 90
        2
176
     1
 62
     7
176
     1
 62
   257
176
     1
 90
        1
176
     1
 90
        1
176
     1
 40
40.0
176
     1
 90
        8
176
     1
 62
     7
176
     1
 40
1.0
176
     1
 90
        1
176
     1
 90
        6
176
     1
 90
        2
176
     1
 62
     7
176
     1
 90
        3
176
     1
 90
        0
176
     1
 90
        0
176
     1
290
     0
176
     1
 90
        1
176
     1
 40
0.0
176
     1
 90
        0
176
     1
290
     0
176
     1
290
     1
176
     1
290
     1
176
     1
290
     0
176
     1
290
     0
176
     1
290
     0
176
     1
290
     0
176
     1
290
     0
176
     1
290
     0
176
     1
 90
       50
176
     1
 40
0.0
176
     1
 40
1.0
176
     1
 90
        0
176
     1
 62
    18
420
        0
176
     1
 90
       50
176
     1
 90
        3
176
     1
 62
     5
420
      255
176
     1
290
     0
176
     1
 90
       50
176
     1
 90
       50
176
     1
 90
       50
176
     1
290
     0
176
     1
 90
       50
176
     1
 62
   256
176
     0
 40
1.0
176
     0
 90
        2
176
     1
  1
strokes_ogs.tif
176
     1
290
     0
176
     1
 40
1.0
176
     1
 40
1.0
176
     1
1001
ACAD
1000
AcDbSavedByObjectVersion
1070
     0
  0
VISUALSTYLE
  5
A4
102
{ACAD_REACTORS
330
99
102
}
330
99
100
AcDbVisualStyle
  2
Dim
 70
    11
177
     3
291
     1
 70
    58
 90
        2
176
     1
 90
        2
176
     1
 90
        1
176
     1
 90
        0
176
     1
 40
0.6
176
     1
 40
30.0
176
     1
 62
     7
420
 16777215
176
     1
 90
        1
176
     1
 90
        4
176
     1
 62
     7
176
     1
 62
   257
176
     1
 90
        1
176
     1
 90
        1
176
     1
 40
1.0
176
     1
 90
        8
176
     1
 62
     7
176
     1
 40
1.0
176
     1
 90
        1
176
     1
 90
        6
176
     1
 90
        2
176
     1
 62
     7
176
     1
 90
        5
176
     1
 90
        0
176
     1
 90
        0
176
     1
290
     0
176
     1
 90
        1
176
     1
 40
-50.0
176
     1
 90
        0
176
     1
290
     0
176
     1
290
     1
176
     1
290
     1
176
     1
290
     0
176
     1
290
     0
176
     1
290
     0
176
     1
290
     0
176
     1
290
     0
176
     1
290
     0
176
     1
 90
       50
176
     1
 40
0.0
176
     1
 40
1.0
176
     1
 90
        0
176
     1
 62
    18
420
        0
176
     1
 90
       50
176
     1
 90
        3
176
     1
 62
     5
420
      255
176
     1
290
     0
176
     1
 90
       50
176
     1
 90
       50
176
     1
 90
       50
176
     1
290
     0
176
     1
 90
       50
176
     1
 62
   256
176
     0
 40
1.0
176
     0
 90
        2
176
     1
  1
strokes_ogs.tif
176
     1
290
     0
176
     1
 40
1.0
176
     1
 40
1.0
176
     1
1001
ACAD
1000
AcDbSavedByObjectVersion
1070
     0
  0
VISUALSTYLE
  5
175
102
{ACAD_REACTORS
330
99
102
}
330
99
100
AcDbVisualStyle
  2
EdgeColorOff
 70
    22
177
     3
291
     1
 70
    58
 90
        2
176
     0
 90
        2
176
     0
 90
        0
176
     0
 90
        0
176
     0
 40
0.6
176
     0
 40
30.0
176
     0
 62
     7
420
 16777215
176
     0
 90
        1
176
     0
 90
        4
176
     0
 62
     7
176
     0
 62
   257
176
     0
 90
        1
176
     0
 90
        1
176
     0
 40
1.0
176
     0
 90
        8
176
     2
 62
     7
176
     0
 40
1.0
176
     0
 90
        1
176
     0
 90
        6
176
     0
 90
        2
176
     0
 62
     7
176
     0
 90
        5
176
     0
 90
        0
176
     0
 90
        0
176
     0
290
     0
176
     0
 90
        1
176
     0
 40
0.0
176
     0
 90
        0
176
     0
290
     0
176
     1
290
     1
176
     1
290
     1
176
     1
290
     0
176
     1
290
     0
176
     1
290
     0
176
     1
290
     0
176
     1
290
     0
176
     1
290
     0
176
     1
 90
       50
176
     1
 40
0.0
176
     1
 40
1.0
176
     1
 90
        0
176
     1
 62
    18
420
        0
176
     1
 90
       50
176
     1
 90
        3
176
     1
 62
     5
420
      255
176
     1
290
     0
176
     1
 90
       50
176
     1
 90
       50
176
     1
 90
       50
176
     1
290
     0
176
     1
 90
       50
176
     1
 62
   256
176
     0
 40
1.0
176
     0
 90
        2
176
     1
  1
strokes_ogs.tif
176
     1
290
     0
176
     1
 40
1.0
176
     1
 40
1.0
176
     1
1001
ACAD
1000
AcDbSavedByObjectVersion
1070
     0
  0
VISUALSTYLE
  5
A8
102
{ACAD_REACTORS
330
99
102
}
330
99
100
AcDbVisualStyle
  2
Facepattern
 70
    15
177
     3
291
     1
 70
    58
 90
        2
176
     1
 90
        2
176
     1
 90
        1
176
     1
 90
        0
176
     1
 40
0.6
176
     1
 40
30.0
176
     1
 62
     7
420
 16777215
176
     1
 90
        1
176
     1
 90
        4
176
     1
 62
     7
176
     1
 62
   257
176
     1
 90
        1
176
     1
 90
        1
176
     1
 40
1.0
176
     1
 90
        8
176
     1
 62
     7
176
     1
 40
1.0
176
     1
 90
        1
176
     1
 90
        6
176
     1
 90
        2
176
     1
 62
     7
176
     1
 90
        5
176
     1
 90
        0
176
     1
 90
        0
176
     1
290
     0
176
     1
 90
        1
176
     1
 40
0.0
176
     1
 90
        0
176
     1
290
     0
176
     1
290
     1
176
     1
290
     1
176
     1
290
     0
176
     1
290
     0
176
     1
290
     0
176
     1
290
     0
176
     1
290
     0
176
     1
290
     0
176
     1
 90
       50
176
     1
 40
0.0
176
     1
 40
1.0
176
     1
 90
        0
176
     1
 62
    18
420
        0
176
     1
 90
       50
176
     1
 90
        3
176
     1
 62
     5
420
      255
176
     1
290
     0
176
     1
 90
       50
176
     1
 90
       50
176
     1
 90
       50
176
     1
290
     0
176
     1
 90
       50
176
     1
 62
   256
176
     0
 40
1.0
176
     0
 90
        2
176
     1
  1
strokes_ogs.tif
176
     1
290
     0
176
     1
 40
1.0
176
     1
 40
1.0
176
     1
1001
ACAD
1000
AcDbSavedByObjectVersion
1070
     0
  0
VISUALSTYLE
  5
9A
102
{ACAD_REACTORS
330
99
102
}
330
99
100
AcDbVisualStyle
  2
Flat
 70
     0
177
     3
291
     1
 70
    58
 90
        2
176
     1
 90
        1
176
     1
 90
        1
176
     1
 90
        2
176
     1
 40
0.6
176
     1
 40
30.0
176
     1
 62
     7
420
 16777215
176
     1
 90
        0
176
     1
 90
        0
176
     1
 62
     7
176
     1
 62
   257
176
     1
 90
        1
176
     1
 90
        1
176
     1
 40
1.0
176
     1
 90
        8
176
     1
 62
     7
176
     1
 40
1.0
176
     1
 90
        1
176
     1
 90
        6
176
     1
 90
        2
176
     1
 62
     7
176
     1
 90
        5
176
     1
 90
        0
176
     1
 90
        0
176
     1
290
     0
176
     1
 90
       13
176
     1
 40
0.0
176
     1
 90
        0
176
     1
290
     0
176
     1
290
     1
176
     1
290
     1
176
     1
290
     0
176
     1
290
     0
176
     1
290
     0
176
     1
290
     0
176
     1
290
     0
176
     1
290
     0
176
     1
 90
       50
176
     1
 40
0.0
176
     1
 40
1.0
176
     1
 90
        0
176
     1
 62
    18
420
        0
176
     1
 90
       50
176
     1
 90
        3
176
     1
 62
     5
420
      255
176
     1
290
     0
176
     1
 90
       50
176
     1
 90
       50
176
     1
 90
       50
176
     1
290
     0
176
     1
 90
       50
176
     1
 62
   256
176
     0
 40
1.0
176
     0
 90
        2
176
     1
  1
strokes_ogs.tif
176
     1
290
     0
176
     1
 40
1.0
176
     1
 40
1.0
176
     1
1001
ACAD
1000
AcDbSavedByObjectVersion
1070
     0
  0
VISUALSTYLE
  5
9B
102
{ACAD_REACTORS
330
99
102
}
330
99
100
AcDbVisualStyle
  2
FlatWithEdges
 70
     1
177
     3
291
     1
 70
    58
 90
        2
176
     1
 90
        1
176
     1
 90
        1
176
     1
 90
        2
176
     1
 40
0.6
176
     1
 40
30.0
176
     1
 62
     7
420
 16777215
176
     1
 90
        1
176
     1
 90
        0
176
     1
 62
     7
176
     1
 62
   257
176
     1
 90
        1
176
     1
 90
        1
176
     1
 40
1.0
176
     1
 90
        0
176
     1
 62
   257
176
     1
 40
1.0
176
     1
 90
        1
176
     1
 90
        6
176
     1
 90
        2
176
     1
 62
     7
176
     1
 90
        5
176
     1
 90
        0
176
     1
 90
        0
176
     1
290
     0
176
     1
 90
       13
176
     1
 40
0.0
176
     1
 90
        0
176
     1
290
     0
176
     1
290
     1
176
     1
290
     1
176
     1
290
     0
176
     1
290
     0
176
     1
290
     0
176
     1
290
     0
176
     1
290
     0
176
     1
290
     0
176
     1
 90
       50
176
     1
 40
0.0
176
     1
 40
1.0
176
     1
 90
        0
176
     1
 62
    18
420
        0
176
     1
 90
       50
176
     1
 90
        3
176
     1
 62
     5
420
      255
176
     1
290
     0
176
     1
 90
       50
176
     1
 90
       50
176
     1
 90
       50
176
     1
290
     0
176
     1
 90
       50
176
     1
 62
   256
176
     0
 40
1.0
176
     0
 90
        2
176
     1
  1
strokes_ogs.tif
176
     1
290
     0
176
     1
 40
1.0
176
     1
 40
1.0
176
     1
1001
ACAD
1000
AcDbSavedByObjectVersion
1070
     0
  0
VISUALSTYLE
  5
9C
102
{ACAD_REACTORS
330
99
102
}
330
99
100
AcDbVisualStyle
  2
Gouraud
 70
     2
177
     3
291
     1
 70
    58
 90
        2
176
     1
 90
        2
176
     1
 90
        1
176
     1
 90
        2
176
     1
 40
0.6
176
     1
 40
30.0
176
     1
 62
     7
420
 16777215
176
     1
 90
        0
176
     1
 90
        0
176
     1
 62
     7
176
     1
 62
   257
176
     1
 90
        1
176
     1
 90
        1
176
     1
 40
1.0
176
     1
 90
        0
176
     1
 62
     7
176
     1
 40
1.0
176
     1
 90
        1
176
     1
 90
        6
176
     1
 90
        2
176
     1
 62
     7
176
     1
 90
        5
176
     1
 90
        0
176
     1
 90
        0
176
     1
290
     0
176
     1
 90
       13
176
     1
 40
0.0
176
     1
 90
        0
176
     1
290
     0
176
     1
290
     1
176
     1
290
     1
176
     1
290
     0
176
     1
290
     0
176
     1
290
     0
176
     1
290
     0
176
     1
290
     0
176
     1
290
     0
176
     1
 90
       50
176
     1
 40
0.0
176
     1
 40
1.0
176
     1
 90
        0
176
     1
 62
    18
420
        0
176
     1
 90
       50
176
     1
 90
        3
176
     1
 62
     5
420
      255
176
     1
290
     0
176
     1
 90
       50
176
     1
 90
       50
176
     1
 90
       50
176
     1
290
     0
176
     1
 90
       50
176
     1
 62
   256
176
     0
 40
1.0
176
     0
 90
        2
176
     1
  1
strokes_ogs.tif
176
     1
290
     0
176
     1
 40
1.0
176
     1
 40
1.0
176
     1
1001
ACAD
1000
AcDbSavedByObjectVersion
1070
     0
  0
VISUALSTYLE
  5
9D
102
{ACAD_REACTORS
330
99
102
}
330
99
100
AcDbVisualStyle
  2
GouraudWithEdges
 70
     3
177
     3
291
     1
 70
    58
 90
        2
176
     1
 90
        2
176
     1
 90
        1
176
     1
 90
        2
176
     1
 40
0.6
176
     1
 40
30.0
176
     1
 62
     7
420
 16777215
176
     1
 90
        1
176
     1
 90
        0
176
     1
 62
     7
176
     1
 62
   257
176
     1
 90
        1
176
     1
 90
        1
176
     1
 40
1.0
176
     1
 90
        0
176
     1
 62
   257
176
     1
 40
1.0
176
     1
 90
        1
176
     1
 90
        6
176
     1
 90
        2
176
     1
 62
     7
176
     1
 90
        5
176
     1
 90
        0
176
     1
 90
        0
176
     1
290
     0
176
     1
 90
       13
176
     1
 40
0.0
176
     1
 90
        0
176
     1
290
     0
176
     1
290
     1
176
     1
290
     1
176
     1
290
     0
176
     1
290
     0
176
     1
290
     0
176
     1
290
     0
176
     1
290
     0
176
     1
290
     0
176
     1
 90
       50
176
     1
 40
0.0
176
     1
 40
1.0
176
     1
 90
        0
176
     1
 62
    18
420
        0
176
     1
 90
       50
176
     1
 90
        3
176
     1
 62
     5
420
      255
176
     1
290
     0
176
     1
 90
       50
176
     1
 90
       50
176
     1
 90
       50
176
     1
290
     0
176
     1
 90
       50
176
     1
 62
   256
176
     0
 40
1.0
176
     0
 90
        2
176
     1
  1
strokes_ogs.tif
176
     1
290
     0
176
     1
 40
1.0
176
     1
 40
1.0
176
     1
1001
ACAD
1000
AcDbSavedByObjectVersion
1070
     0
  0
VISUALSTYLE
  5
A1
102
{ACAD_REACTORS
330
99
102
}
330
99
100
AcDbVisualStyle
  2
Hidden
 70
     6
177
     3
291
     0
 70
    58
 90
        1
176
     1
 90
        2
176
     1
 90
        2
176
     1
 90
        0
176
     1
 40
0.6
176
     1
 40
30.0
176
     1
 62
     7
420
 16777215
176
     1
 90
        2
176
     1
 90
        2
176
     1
 62
     7
176
     1
 62
   257
176
     1
 90
        2
176
     1
 90
        1
176
     1
 40
40.0
176
     1
 90
        0
176
     1
 62
   257
176
     1
 40
1.0
176
     1
 90
        1
176
     1
 90
        6
176
     1
 90
        2
176
     1
 62
     7
176
     1
 90
        3
176
     1
 90
        0
176
     1
 90
        0
176
     1
290
     0
176
     1
 90
        1
176
     1
 40
0.0
176
     1
 90
        0
176
     1
290
     0
176
     1
290
     1
176
     1
290
     1
176
     1
290
     0
176
     1
290
     0
176
     1
290
     0
176
     1
290
     0
176
     1
290
     0
176
     1
290
     0
176
     1
 90
       50
176
     1
 40
0.0
176
     1
 40
1.0
176
     1
 90
        0
176
     1
 62
    18
420
        0
176
     1
 90
       50
176
     1
 90
        3
176
     1
 62
     5
420
      255
176
     1
290
     0
176
     1
 90
       50
176
     1
 90
       50
176
     1
 90
       50
176
     1
290
     0
176
     1
 90
       50
176
     1
 62
   256
176
     0
 40
1.0
176
     0
 90
        2
176
     1
  1
strokes_ogs.tif
176
     1
290
     0
176
     1
 40
1.0
176
     1
 40
1.0
176
     1
1001
ACAD
1000
AcDbSavedByObjectVersion
1070
     0
  0
VISUALSTYLE
  5
173
102
{ACAD_REACTORS
330
99
102
}
330
99
100
AcDbVisualStyle
  2
JitterOff
 70
    20
177
     3
291
     1
 70
    58
 90
        2
176
     0
 90
        2
176
     0
 90
        0
176
     0
 90
        0
176
     0
 40
0.6
176
     0
 40
30.0
176
     0
 62
     7
420
 16777215
176
     0
 90
        1
176
     0
 90
        4
176
     0
 62
     7
176
     0
 62
   257
176
     0
 90
        1
176
     0
 90
        1
176
     0
 40
1.0
176
     0
 90
       10
176
     2
 62
     7
176
     0
 40
1.0
176
     0
 90
        1
176
     0
 90
        6
176
     0
 90
        2
176
     0
 62
     7
176
     0
 90
        5
176
     0
 90
        0
176
     0
 90
        0
176
     0
290
     0
176
     0
 90
        1
176
     0
 40
0.0
176
     0
 90
        0
176
     0
290
     0
176
     1
290
     1
176
     1
290
     1
176
     1
290
     0
176
     1
290
     0
176
     1
290
     0
176
     1
290
     0
176
     1
290
     0
176
     1
290
     0
176
     1
 90
       50
176
     1
 40
0.0
176
     1
 40
1.0
176
     1
 90
        0
176
     1
 62
    18
420
        0
176
     1
 90
       50
176
     1
 90
        3
176
     1
 62
     5
420
      255
176
     1
290
     0
176
     1
 90
       50
176
     1
 90
       50
176
     1
 90
       50
176
     1
290
     0
176
     1
 90
       50
176
     1
 62
   256
176
     0
 40
1.0
176
     0
 90
        2
176
     1
  1
strokes_ogs.tif
176
     1
290
     0
176
     1
 40
1.0
176
     1
 40
1.0
176
     1
1001
ACAD
1000
AcDbSavedByObjectVersion
1070
     0
  0
VISUALSTYLE
  5
A7
102
{ACAD_REACTORS
330
99
102
}
330
99
100
AcDbVisualStyle
  2
Linepattern
 70
    14
177
     3
291
     1
 70
    58
 90
        2
176
     1
 90
        2
176
     1
 90
        1
176
     1
 90
        0
176
     1
 40
0.6
176
     1
 40
30.0
176
     1
 62
     7
420
 16777215
176
     1
 90
        1
176
     1
 90
        4
176
     1
 62
     7
176
     1
 62
   257
176
     1
 90
        7
176
     1
 90
        7
176
     1
 40
1.0
176
     1
 90
        8
176
     1
 62
     7
176
     1
 40
1.0
176
     1
 90
        1
176
     1
 90
        6
176
     1
 90
        2
176
     1
 62
     7
176
     1
 90
        5
176
     1
 90
        0
176
     1
 90
        0
176
     1
290
     0
176
     1
 90
        1
176
     1
 40
0.0
176
     1
 90
        0
176
     1
290
     0
176
     1
290
     1
176
     1
290
     1
176
     1
290
     0
176
     1
290
     0
176
     1
290
     0
176
     1
290
     0
176
     1
290
     0
176
     1
290
     0
176
     1
 90
       50
176
     1
 40
0.0
176
     1
 40
1.0
176
     1
 90
        0
176
     1
 62
    18
420
        0
176
     1
 90
       50
176
     1
 90
        3
176
     1
 62
     5
420
      255
176
     1
290
     0
176
     1
 90
       50
176
     1
 90
       50
176
     1
 90
       50
176
     1
290
     0
176
     1
 90
       50
176
     1
 62
   256
176
     0
 40
1.0
176
     0
 90
        2
176
     1
  1
strokes_ogs.tif
176
     1
290
     0
176
     1
 40
1.0
176
     1
 40
1.0
176
     1
1001
ACAD
1000
AcDbSavedByObjectVersion
1070
     0
  0
VISUALSTYLE
  5
174
102
{ACAD_REACTORS
330
99
102
}
330
99
100
AcDbVisualStyle
  2
OverhangOff
 70
    21
177
     3
291
     1
 70
    58
 90
        2
176
     0
 90
        2
176
     0
 90
        0
176
     0
 90
        0
176
     0
 40
0.6
176
     0
 40
30.0
176
     0
 62
     7
420
 16777215
176
     0
 90
        1
176
     0
 90
        4
176
     0
 62
     7
176
     0
 62
   257
176
     0
 90
        1
176
     0
 90
        1
176
     0
 40
1.0
176
     0
 90
        9
176
     2
 62
     7
176
     0
 40
1.0
176
     0
 90
        1
176
     0
 90
        6
176
     0
 90
        2
176
     0
 62
     7
176
     0
 90
        5
176
     0
 90
        0
176
     0
 90
        0
176
     0
290
     0
176
     0
 90
        1
176
     0
 40
0.0
176
     0
 90
        0
176
     0
290
     0
176
     1
290
     1
176
     1
290
     1
176
     1
290
     0
176
     1
290
     0
176
     1
290
     0
176
     1
290
     0
176
     1
290
     0
176
     1
290
     0
176
     1
 90
       50
176
     1
 40
0.0
176
     1
 40
1.0
176
     1
 90
        0
176
     1
 62
    18
420
        0
176
     1
 90
       50
176
     1
 90
        3
176
     1
 62
     5
420
      255
176
     1
290
     0
176
     1
 90
       50
176
     1
 90
       50
176
     1
 90
       50
176
     1
290
     0
176
     1
 90
       50
176
     1
 62
   256
176
     0
 40
1.0
176
     0
 90
        2
176
     1
  1
strokes_ogs.tif
176
     1
290
     0
176
     1
 40
1.0
176
     1
 40
1.0
176
     1
1001
ACAD
1000
AcDbSavedByObjectVersion
1070
     0
  0
VISUALSTYLE
  5
A3
102
{ACAD_REACTORS
330
99
102
}
330
99
100
AcDbVisualStyle
  2
Realistic
 70
     8
177
     3
291
     0
 70
    58
 90
        2
176
     1
 90
        3
176
     1
 90
        0
176
     1
 90
        2
176
     1
 40
0.6
176
     1
 40
30.0
176
     1
 62
     7
420
 16777215
176
     1
 90
        0
176
     1
 90
        0
176
     1
 62
     7
176
     1
 62
   257
176
     1
 90
        1
176
     1
 90
        1
176
     1
 40
1.0
176
     1
 90
        8
176
     1
 62
   257
176
     1
 40
1.0
176
     1
 90
        1
176
     1
 90
        6
176
     1
 90
        2
176
     1
 62
     7
176
     1
 90
        3
176
     1
 90
        0
176
     1
 90
        0
176
     1
290
     0
176
     1
 90
       13
176
     1
 40
0.0
176
     1
 90
        0
176
     1
290
     0
176
     1
290
     1
176
     1
290
     1
176
     1
290
     0
176
     1
290
     0
176
     1
290
     0
176
     1
290
     0
176
     1
290
     0
176
     1
290
     0
176
     1
 90
       50
176
     1
 40
0.0
176
     1
 40
1.0
176
     1
 90
        0
176
     1
 62
    18
420
        0
176
     1
 90
       50
176
     1
 90
        3
176
     1
 62
     5
420
      255
176
     1
290
     0
176
     1
 90
       50
176
     1
 90
       50
176
     1
 90
       50
176
     1
290
     0
176
     1
 90
       50
176
     1
 62
   256
176
     0
 40
1.0
176
     0
 90
        2
176
     1
  1
strokes_ogs.tif
176
     1
290
     0
176
     1
 40
1.0
176
     1
 40
1.0
176
     1
1001
ACAD
1000
AcDbSavedByObjectVersion
1070
     0
  0
VISUALSTYLE
  5
182
102
{ACAD_REACTORS
330
99
102
}
330
99
100
AcDbVisualStyle
  2
Shaded
 70
    27
177
     3
291
     0
 70
    58
 90
        2
176
     1
 90
        2
176
     1
 90
        1
176
     1
 90
        2
176
     1
 40
0.6
176
     1
 40
30.0
176
     1
 62
     7
420
 16777215
176
     1
 90
        0
176
     1
 90
        4
176
     1
 62
     7
176
     1
 62
   257
176
     1
 90
        1
176
     1
 90
        1
176
     1
 40
1.0
176
     1
 90
        8
176
     1
 62
   257
176
     1
 40
1.0
176
     1
 90
        1
176
     1
 90
        6
176
     1
 90
        2
176
     1
 62
     8
420
  7895160
176
     1
 90
        3
176
     1
 90
        0
176
     1
 90
        0
176
     1
290
     0
176
     1
 90
        5
176
     1
 40
0.0
176
     1
 90
        0
176
     1
290
     0
176
     1
290
     1
176
     1
290
     1
176
     1
290
     0
176
     1
290
     0
176
     1
290
     0
176
     1
290
     0
176
     1
290
     0
176
     1
290
     0
176
     1
 90
       50
176
     1
 40
0.0
176
     1
 40
1.0
176
     1
 90
        0
176
     1
 62
    18
420
        0
176
     1
 90
       50
176
     1
 90
        3
176
     1
 62
     5
420
      255
176
     1
290
     0
176
     1
 90
       50
176
     1
 90
       50
176
     1
 90
       50
176
     1
290
     0
176
     1
 90
       50
176
     1
 62
   256
176
     0
 40
1.0
176
     0
 90
        2
176
     1
  1
strokes_ogs.tif
176
     1
290
     0
176
     1
 40
1.0
176
     1
 40
1.0
176
     1
1001
ACAD
1000
AcDbSavedByObjectVersion
1070
     0
  0
VISUALSTYLE
  5
181
102
{ACAD_REACTORS
330
99
102
}
330
99
100
AcDbVisualStyle
  2
Shaded with edges
 70
    26
177
     3
291
     0
 70
    58
 90
        2
176
     1
 90
        2
176
     1
 90
        1
176
     1
 90
        2
176
     1
 40
0.6
176
     1
 40
30.0
176
     1
 62
     7
420
 16777215
176
     1
 90
        1
176
     1
 90
        2
176
     1
 62
     7
176
     1
 62
   257
176
     1
 90
        2
176
     1
 90
        1
176
     1
 40
1.0
176
     1
 90
        8
176
     1
 62
   257
176
     1
 40
1.0
176
     1
 90
        1
176
     1
 90
        6
176
     1
 90
        2
176
     1
 62
     7
176
     1
 90
        3
176
     1
 90
        0
176
     1
 90
        0
176
     1
290
     0
176
     1
 90
        5
176
     1
 40
0.0
176
     1
 90
        0
176
     1
290
     0
176
     1
290
     1
176
     1
290
     1
176
     1
290
     0
176
     1
290
     0
176
     1
290
     0
176
     1
290
     0
176
     1
290
     0
176
     1
290
     0
176
     1
 90
       50
176
     1
 40
0.0
176
     1
 40
1.0
176
     1
 90
        0
176
     1
 62
    18
420
        0
176
     1
 90
       50
176
     1
 90
        3
176
     1
 62
     5
420
      255
176
     1
290
     0
176
     1
 90
       50
176
     1
 90
       50
176
     1
 90
       50
176
     1
290
     0
176
     1
 90
       50
176
     1
 62
   256
176
     0
 40
1.0
176
     0
 90
        2
176
     1
  1
strokes_ogs.tif
176
     1
290
     0
176
     1
 40
1.0
176
     1
 40
1.0
176
     1
1001
ACAD
1000
AcDbSavedByObjectVersion
1070
     0
  0
VISUALSTYLE
  5
17E
102
{ACAD_REACTORS
330
99
102
}
330
99
100
AcDbVisualStyle
  2
Shades of Gray
 70
    23
177
     3
291
     0
 70
    58
 90
        2
176
     1
 90
        2
176
     1
 90
        3
176
     1
 90
        0
176
     1
 40
0.6
176
     1
 40
30.0
176
     1
 62
     7
420
 16777215
176
     1
 90
        2
176
     1
 90
        2
176
     1
 62
     7
176
     1
 62
     7
176
     1
 90
        1
176
     1
 90
        1
176
     1
 40
40.0
176
     1
 90
        8
176
     1
 62
     7
176
     1
 40
1.0
176
     1
 90
        1
176
     1
 90
        6
176
     1
 90
        2
176
     1
 62
     7
176
     1
 90
        3
176
     1
 90
        0
176
     1
 90
        0
176
     1
290
     0
176
     1
 90
        1
176
     1
 40
0.0
176
     1
 90
        0
176
     1
290
     0
176
     1
290
     1
176
     1
290
     1
176
     1
290
     0
176
     1
290
     0
176
     1
290
     0
176
     1
290
     0
176
     1
290
     0
176
     1
290
     0
176
     1
 90
       50
176
     1
 40
0.0
176
     1
 40
1.0
176
     1
 90
        0
176
     1
 62
    18
420
        0
176
     1
 90
       50
176
     1
 90
        3
176
     1
 62
     5
420
      255
176
     1
290
     0
176
     1
 90
       50
176
     1
 90
       50
176
     1
 90
       50
176
     1
290
     0
176
     1
 90
       50
176
     1
 62
   256
176
     0
 40
1.0
176
     0
 90
        2
176
     1
  1
strokes_ogs.tif
176
     1
290
     0
176
     1
 40
1.0
176
     1
 40
1.0
176
     1
1001
ACAD
1000
AcDbSavedByObjectVersion
1070
     0
  0
VISUALSTYLE
  5
17F
102
{ACAD_REACTORS
330
99
102
}
330
99
100
AcDbVisualStyle
  2
Sketchy
 70
    24
177
     3
291
     0
 70
    58
 90
        1
176
     1
 90
        2
176
     1
 90
        2
176
     1
 90
        0
176
     1
 40
0.6
176
     1
 40
30.0
176
     1
 62
     7
420
 16777215
176
     1
 90
        2
176
     1
 90
        2
176
     1
 62
     7
176
     1
 62
     7
176
     1
 90
        1
176
     1
 90
        1
176
     1
 40
40.0
176
     1
 90
       11
176
     1
 62
     7
176
     1
 40
1.0
176
     1
 90
        1
176
     1
 90
        6
176
     1
 90
        2
176
     1
 62
     7
176
     1
 90
        6
176
     1
 90
        0
176
     1
 90
        0
176
     1
290
     0
176
     1
 90
        1
176
     1
 40
0.0
176
     1
 90
        0
176
     1
290
     0
176
     1
290
     1
176
     1
290
     1
176
     1
290
     0
176
     1
290
     0
176
     1
290
     0
176
     1
290
     0
176
     1
290
     0
176
     1
290
     0
176
     1
 90
       50
176
     1
 40
0.0
176
     1
 40
1.0
176
     1
 90
        0
176
     1
 62
    18
420
        0
176
     1
 90
       50
176
     1
 90
        3
176
     1
 62
     5
420
      255
176
     1
290
     0
176
     1
 90
       50
176
     1
 90
       50
176
     1
 90
       50
176
     1
290
     0
176
     1
 90
       50
176
     1
 62
   256
176
     0
 40
1.0
176
     0
 90
        2
176
     1
  1
strokes_ogs.tif
176
     1
290
     0
176
     1
 40
1.0
176
     1
 40
1.0
176
     1
1001
ACAD
1000
AcDbSavedByObjectVersion
1070
     0
  0
VISUALSTYLE
  5
A6
102
{ACAD_REACTORS
330
99
102
}
330
99
100
AcDbVisualStyle
  2
Thicken
 70
    13
177
     3
291
     1
 70
    58
 90
        2
176
     1
 90
        2
176
     1
 90
        1
176
     1
 90
        0
176
     1
 40
0.6
176
     1
 40
30.0
176
     1
 62
     7
420
 16777215
176
     1
 90
        1
176
     1
 90
        4
176
     1
 62
     7
176
     1
 62
   257
176
     1
 90
        1
176
     1
 90
        1
176
     1
 40
1.0
176
     1
 90
       12
176
     1
 62
     7
176
     1
 40
1.0
176
     1
 90
        1
176
     1
 90
        6
176
     1
 90
        2
176
     1
 62
     7
176
     1
 90
        5
176
     1
 90
        0
176
     1
 90
        0
176
     1
290
     0
176
     1
 90
        1
176
     1
 40
0.0
176
     1
 90
        0
176
     1
290
     0
176
     1
290
     1
176
     1
290
     1
176
     1
290
     0
176
     1
290
     0
176
     1
290
     0
176
     1
290
     0
176
     1
290
     0
176
     1
290
     0
176
     1
 90
       50
176
     1
 40
0.0
176
     1
 40
1.0
176
     1
 90
        0
176
     1
 62
    18
420
        0
176
     1
 90
       50
176
     1
 90
        3
176
     1
 62
     5
420
      255
176
     1
290
     0
176
     1
 90
       50
176
     1
 90
       50
176
     1
 90
       50
176
     1
290
     0
176
     1
 90
       50
176
     1
 62
   256
176
     0
 40
1.0
176
     0
 90
        2
176
     1
  1
strokes_ogs.tif
176
     1
290
     0
176
     1
 40
1.0
176
     1
 40
1.0
176
     1
1001
ACAD
1000
AcDbSavedByObjectVersion
1070
     0
  0
VISUALSTYLE
  5
A0
102
{ACAD_REACTORS
330
99
102
}
330
99
100
AcDbVisualStyle
  2
Wireframe
 70
     5
177
     3
291
     0
 70
    58
 90
        0
176
     1
 90
        2
176
     1
 90
        0
176
     1
 90
        0
176
     1
 40
0.6
176
     1
 40
30.0
176
     1
 62
     7
420
 16777215
176
     1
 90
        1
176
     1
 90
        4
176
     1
 62
     7
176
     1
 62
   257
176
     1
 90
        1
176
     1
 90
        1
176
     1
 40
1.0
176
     1
 90
        0
176
     1
 62
   257
176
     1
 40
1.0
176
     1
 90
        1
176
     1
 90
        6
176
     1
 90
        2
176
     1
 62
     7
176
     1
 90
        3
176
     1
 90
        0
176
     1
 90
        0
176
     1
290
     0
176
     1
 90
        1
176
     1
 40
0.0
176
     1
 90
        0
176
     1
290
     0
176
     1
290
     1
176
     1
290
     1
176
     1
290
     0
176
     1
290
     0
176
     1
290
     0
176
     1
290
     0
176
     1
290
     0
176
     1
290
     0
176
     1
 90
       50
176
     1
 40
0.0
176
     1
 40
1.0
176
     1
 90
        0
176
     1
 62
    18
420
        0
176
     1
 90
       50
176
     1
 90
        3
176
     1
 62
     5
420
      255
176
     1
290
     0
176
     1
 90
       50
176
     1
 90
       50
176
     1
 90
       50
176
     1
290
     0
176
     1
 90
       50
176
     1
 62
   256
176
     0
 40
1.0
176
     0
 90
        2
176
     1
  1
strokes_ogs.tif
176
     1
290
     0
176
     1
 40
1.0
176
     1
 40
1.0
176
     1
1001
ACAD
1000
AcDbSavedByObjectVersion
1070
     0
  0
VISUALSTYLE
  5
180
102
{ACAD_REACTORS
330
99
102
}
330
99
100
AcDbVisualStyle
  2
X-Ray
 70
    25
177
     3
291
     0
 70
    58
 90
        2
176
     1
 90
        2
176
     1
 90
        1
176
     1
 90
        1
176
     1
 40
0.5
176
     1
 40
30.0
176
     1
 62
     7
420
 16777215
176
     1
 90
        1
176
     1
 90
        0
176
     1
 62
     7
176
     1
 62
   257
176
     1
 90
        1
176
     1
 90
        1
176
     1
 40
1.0
176
     1
 90
        8
176
     1
 62
     7
176
     1
 40
1.0
176
     1
 90
        1
176
     1
 90
        6
176
     1
 90
        2
176
     1
 62
     7
176
     1
 90
        3
176
     1
 90
        0
176
     1
 90
        0
176
     1
290
     0
176
     1
 90
       13
176
     1
 40
0.0
176
     1
 90
        0
176
     1
290
     0
176
     1
290
     1
176
     1
290
     1
176
     1
290
     0
176
     1
290
     0
176
     1
290
     0
176
     1
290
     0
176
     1
290
     0
176
     1
290
     0
176
     1
 90
       50
176
     1
 40
0.0
176
     1
 40
1.0
176
     1
 90
        0
176
     1
 62
    18
420
        0
176
     1
 90
       50
176
     1
 90
        3
176
     1
 62
     5
420
      255
176
     1
290
     0
176
     1
 90
       50
176
     1
 90
       50
176
     1
 90
       50
176
     1
290
     0
176
     1
 90
       50
176
     1
 62
   256
176
     0
 40
1.0
176
     0
 90
        2
176
     1
  1
strokes_ogs.tif
176
     1
290
     0
176
     1
 40
1.0
176
     1
 40
1.0
176
     1
1001
ACAD
1000
AcDbSavedByObjectVersion
1070
     0
  0
DICTIONARYVAR
  5
F0
102
{ACAD_REACTORS
330
66
102
}
330
66
100
DictionaryVariables
280
     0
  1
1:1
  0
DICTIONARYVAR
  5
EF
102
{ACAD_REACTORS
330
66
102
}
330
66
100
DictionaryVariables
280
     0
  1
STANDARD
  0
DICTIONARYVAR
  5
89
102
{ACAD_REACTORS
330
66
102
}
330
66
100
DictionaryVariables
280
     0
  1
STANDARD
  0
DICTIONARYVAR
  5
1B7
102
{ACAD_REACTORS
330
66
102
}
330
66
100
DictionaryVariables
280
     0
  1
Imperial24
  0
DICTIONARYVAR
  5
1B8
102
{ACAD_REACTORS
330
66
102
}
330
66
100
DictionaryVariables
280
     0
  1
Imperial24
  0
DICTIONARYVAR
  5
67
102
{ACAD_REACTORS
330
66
102
}
330
66
100
DictionaryVariables
280
     0
  1
2
  0
DICTIONARYVAR
  5
6B
102
{ACAD_REACTORS
330
66
102
}
330
66
100
DictionaryVariables
280
     0
  1
1
  0
DICTIONARYVAR
  5
14D
102
{ACAD_REACTORS
330
66
102
}
330
66
100
DictionaryVariables
280
     0
  1
0
  0
DICTIONARYVAR
  5
14E
102
{ACAD_REACTORS
330
66
102
}
330
66
100
DictionaryVariables
280
     0
  1
0
  0
DICTIONARY
  5
D11
102
{ACAD_REACTORS
330
D0F
102
}
330
D0F
100
AcDbDictionary
281
     1
  0
DICTIONARY
  5
D10
102
{ACAD_REACTORS
330
D0F
102
}
330
D0F
100
AcDbDictionary
281
     1
  3
2699963648160
350
D0A
  3
2699963648176
350
D0B
  3
2699963648192
350
D0C
  3
2699963648208
350
D0D
  3
2699963648224
350
D0E
  0
XRECORD
  5
D02
102
{ACAD_REACTORS
330
21B
102
}
330
21B
100
AcDbXrecord
280
     1
1000
ADE02C001
1070
     1
1070
     0
1002
{
1002
}
1002
{
1002
}
1002
{
1002
}
1000

  0
XRECORD
  5
D04
102
{ACAD_REACTORS
330
D03
102
}
330
D03
100
AcDbXrecord
280
     1
  0
DMSTYLIZEDENTITIESTABLE
  5
215
102
{ACAD_REACTORS
330
204
102
}
330
204
100
AcMapDMStylizedEntitiesTable
 70
     1
  0
MAPRESOURCEMANAGEROBJECT
  5
209
102
{ACAD_REACTORS
330
204
102
}
330
204
100
AcMapResourceManager
 70
     1
 90
        0
  0
DATATABLE
  5
208
102
{ACAD_REACTORS
330
204
102
}
330
204
100
AcDbDataTable
 70
     2
 90
        4
 91
       15
  1

 92
        3
  2
OriginalClassName
  3
AcMapDMDefaultStyle
  3
AcMapDMEntityStyle
  3
AcMapDMRasterStyle
  3
AcMapDMSEAnnotationStyle
  3
AcMapDMSEHatchStyle
  3
AcMapDMSETextStyle
  3
AcMapDMThematicStyle
  3
AcMapDMBaseElement
  3
AcMapDMAttachedDwgsQueryElement
  3
AcMapDMFeatureElement
  3
AcMapDMLayerElement
  3
AcMapDMCurrentDwgQueryElement
  3
AcMapDMRasterElement
  3
AcMapDMTopoElement
  3
AcMapDMTopoQueryElement
 92
        3
  2
ProxyDisplayName
  3
Default
  3
Entity
  3
Raster
  3
Annotation
  3
Hatch
  3
Text
  3
Thematic
  3
Map Base
  3
Ade Query
  3
Feature Class
  3
Layer
  3
Ade Project Query
  3
Raster
  3
Topology
  3
Topology Query
 92
        1
  2
CustomObjectType
 93
        2
 93
        2
 93
        2
 93
        2
 93
        2
 93
        2
 93
        2
 93
        1
 93
        1
 93
        1
 93
        1
 93
        1
 93
        1
 93
        1
 93
        1
 92
        1
  2
StyleCoExistanceType
 93
        1
 93
        1
 93
        1
 93
        1
 93
        1
 93
        1
 93
        2
 93
        0
 93
        0
 93
        0
 93
        0
 93
        0
 93
        0
 93
        0
 93
        0
  0
DMMAPMANAGER
  5
205
102
{ACAD_REACTORS
330
204
102
}
330
204
100
AcDbDictionary
281
     1
  3
DisplayMap1
350
20B
100
AcDbDictionaryWithDefault
340
20B
100
AcMapDMMapManager
 70
     1
340
20B
  0
DMSTYLELIBRARY
  5
206
102
{ACAD_REACTORS
330
204
102
}
330
204
100
AcMapDMStyleLibrary
 70
     1
 70
     1
360
207
  0
DICTIONARY
  5
216
102
{ACAD_REACTORS
330
204
102
}
330
204
100
AcDbDictionary
281
     1
  0
DICTIONARY
  5
D14
330
1AC
100
AcDbDictionary
280
     1
281
     1
  3
ACAD_XREC_ROUNDTRIP
360
D15
  0
DICTIONARY
  5
D18
330
239
100
AcDbDictionary
280
     1
281
     1
  3
ACAD_XREC_ROUNDTRIP
360
D19
  0
DICTIONARY
  5
194
330
22
100
AcDbDictionary
280
     1
281
     1
  0
DICTIONARY
  5
188
330
97
100
AcDbDictionary
280
     1
281
     1
  3
FBXASSET
360
189
  0
DICTIONARY
  5
186
330
96
100
AcDbDictionary
280
     1
281
     1
  3
FBXASSET
360
187
  0
DICTIONARY
  5
110
330
98
100
AcDbDictionary
280
     1
281
     1
  3
BUMPTILE
360
112
  3
DIFFUSETILE
360
111
  3
FBXASSET
360
18A
  3
OPACITYTILE
360
113
  3
REFLECTIONTILE
360
114
  0
DICTIONARY
  5
D12
330
1AA
100
AcDbDictionary
280
     1
281
     1
  3
ACAD_XREC_ROUNDTRIP
360
D13
  0
DICTIONARY
  5
D16
330
238
100
AcDbDictionary
280
     1
281
     1
  3
ACAD_XREC_ROUNDTRIP
360
D17
  0
DICTIONARY
  5
D06
330
20D
100
AcDbDictionary
280
     1
281
     1
  3
ACAD_ROUNDTRIP_2008_TABLESTYLE_CELLSTYLEMAP
360
D07
  0
DICTIONARY
  5
104
330
87
100
AcDbDictionary
280
     1
281
     1
  3
ACAD_ROUNDTRIP_2008_TABLESTYLE_CELLSTYLEMAP
360
D05
  0
XRECORD
  5
D0A
102
{ACAD_REACTORS
330
D10
102
}
330
D10
100
AcDbXrecord
280
     1
  1
AcDb_Thumbnail_Schema
102
{ATTRRECORD
341
D0B
  2
AcDbDs::TreatedAsObjectData
280
     1
291
     1
102
ATTRRECORD}
102
{ATTRRECORD
341
D0C
  2
AcDbDs::Legacy
280
     1
291
     1
102
ATTRRECORD}
  2
AcDbDs::ID
280
    10
 91
        8
102
{ATTRRECORD
341
D0D
  2
AcDs:Indexable
280
     1
291
     1
102
ATTRRECORD}
102
{ATTRRECORD
341
D0E
  2
AcDbDs::HandleAttribute
280
     7
282
     1
102
ATTRRECORD}
  2
Thumbnail_Data
280
    15
 91
        0
  0
XRECORD
  5
D0B
102
{ACAD_REACTORS
330
D10
102
}
330
D10
100
AcDbXrecord
280
     1
  1
AcDbDs::TreatedAsObjectDataSchema
  2
AcDbDs::TreatedAsObjectData
280
     1
 91
        0
  0
XRECORD
  5
D0C
102
{ACAD_REACTORS
330
D10
102
}
330
D10
100
AcDbXrecord
280
     1
  1
AcDbDs::LegacySchema
  2
AcDbDs::Legacy
280
     1
 91
        0
  0
XRECORD
  5
D0D
102
{ACAD_REACTORS
330
D10
102
}
330
D10
100
AcDbXrecord
280
     1
  1
AcDbDs::IndexedPropertySchema
  2
AcDs:Indexable
280
     1
 91
        0
  0
XRECORD
  5
D0E
102
{ACAD_REACTORS
330
D10
102
}
330
D10
100
AcDbXrecord
280
     1
  1
AcDbDs::HandleAttributeSchema
  2
AcDbDs::HandleAttribute
280
     7
 91
        1
284
     1
  0
DMMAP
  5
20B
102
{ACAD_REACTORS
330
205
330
20E
102
}
330
205
100
AcMapDMMap
 70
     1
  1
Vorgabe
 70
     1
330
0
100
AcMapDMMap
 70
     1
 90
        1
360
20E
 90
        1
 40
1.797693134862314E+99
 70
     1
100
AcMapDMMap
 70
     6
 70
     0
 40
1.797693134862314E+99
290
     1
290
     1
 40
1.0
 40
3.0
  1
Legend
 90
        1
 40
1.797693134862314E+99
  1

 70
     0
 40
1.0
 70
     1
 90
        0
 90
        1
360
20F
 40
150.5495406097268
290
     0
290
     1
 40
1.0
 90
       40
290
     0
290
     1
 40
71216.75439545628
 40
318918.0264550653
 40
73161.0056361556
 40
320011.0788488672
  1

290
     1
 40
123.5167496935449
 40
51.4866775483815
  0
DMSTYLECATEGORY
  5
207
102
{ACAD_REACTORS
330
206
102
}
330
206
100
AcMapDMStyleCategory
 70
     1
  1
Anzeigestile
 70
     0
  0
XRECORD
  5
D15
102
{ACAD_REACTORS
330
D14
102
}
330
D14
100
AcDbXrecord
280
     1
102
DISPLAYNAME
  1
Imperial24
102
FLAGS
 90
        0
  0
XRECORD
  5
D19
102
{ACAD_REACTORS
330
D18
102
}
330
D18
100
AcDbXrecord
280
     1
102
DISPLAYNAME
  1
Metric50
102
FLAGS
 90
        0
  0
XRECORD
  5
189
102
{ACAD_REACTORS
330
188
102
}
330
188
100
AcDbXrecord
280
     1
 70
     1
 90
429727718
  1
508B35C9-AEE7-456F-BE74-D52651303AC6
310
504B03040A0000080000B670623B3DEE336E79000000790000001B0000006175746F6465736B2D64657369676E2D7061636B6167652E786D6C3C3F786D6C2076657273696F6E3D22312E302220656E636F64696E673D227574662D3822203F3E3C666F726D6174733E3C666F726D61743E687474703A2F2F736368656D612E
310
6175746F6465736B2E636F6D2F64657369676E2D7061636B6167652F323030393C2F666F726D61743E3C2F666F726D6174733E504B0304140006080800B670623BD486FD9CA0000000F4000000130000005B436F6E74656E745F54797065735D2E786D6C7D8EC10E82300C865F65E91D8A1E8C310C0EEA1BF002731658846E
310
D98AC1B77784ABF1D8FE5FBFBF75BBCE937A534CCEB38643598122B6FEE978D0B0485F9C41B54DDD7D022595594E1A469170414C76A4D9A4D207E29CF43ECE46F218070CC6BECC4078ACAA135ACF422C856C0E68EA1BF5669944DDD7BCDE7B1F8E415D77AECB980613C2E4AC91FC167A2B244592486606FC29C8FD7F045B9A
310
EF7053A7E60B504B0304140006080800B670623B28ED286BEB0000007C01000008000000636F72652E786D6C8D90416EC3201045AF82665B6183218D6D61A254764FD00B204C5C94182C03558F5F9C3852BBEB6A467FFE9B197D71FA9E6FE8CBACC17AD7012D0820E3B41FAD9B3A48F1826B40272956EFE32F1B20A766D3C1
310
268314D3EAD3B24BDABB685CCCAAF3A3D94515828980F42D371D04FD696655A814B3235C8B45E9AB9A4C419F5D8653B2237A1CB163DE672FD6AC209BF3C08E0D1B30EB19C3FC9D72FCC6EB231EFA33EDE96BDD341517E5064B11EDFCBCAF57A3A2194156843498524CAA0FCA5B7268F9E185D42D21A2DCEC7FA0B48CFF8492
310
759155FBBB0F2C80A4F991FB408A72CB22977B50B96EB9C91F504B0304140006080800B670623B55019EA25F0000007C00000007000000636E782E786D6C4DCB3B0E80201045D1AD90E915ED2CF8AC45050C11660C8261F98AB1B07AC9C97D42D718D865D3E909258CFD00CCE24AC6E326A164D74DC0B4128928FF32603847
310
2BA13128B1252AC747C6BAB984FC68F0B87FE8960A5C09FE86CFB69FBA01504B0304140006080800B670623B7BC41AC871010000D40300000C0000006662782F636F72652E786D6CC553ED6E8320147D15C2DF4501B56B6D90A64BBB27D80B50A5CE54C120983EFEAE1F4DD7A56BBA5FF3879273EEE59E7310BE393735EA95
310
ED2AA333CC428A91D2B9292A5D66D8BB63B0C26823B835C67D2BC348CB46657880B1E0A535BE9DA1DC68A7B403549B42CDA0EC3AE530CA6B5864B8CB3F552343E91D5474A7B095F949962A6421D0502778E72C0840D390E18DC5F170E664C205F7BE2A66B62A605A75AC94C522DDEEE3651AEF837817C741F2CE92E02D592D
310
83FD6ECB76EC7595A651C2C9D02CB8AB9A8BBADC2AE954814544691A3016D0E883256BBA58278B17BA5A53CAC9507ED3E4DBE2C9265F691747B3DCA9ADC382819091F8E1162272A8933DE82182932144F88C09DF060D8140C84E1EEA8B8F1340BDCA9DB1093085F157AA97B557309586747CD0EF0B4EA64E983A6E0EAEEFCE
310
889E9EF17847386AA94B30211D2C0FDE0D3AF9A4610EAD5536E8DD1969631B593F67E381C33F5157F17725E5A636F6BF1491F980C8FC7B90E13E8A2F504B0304140006080800B670623B70102A487D0000009D0000000B0000006662782F636E782E786D6C4DCCD10A83201886E15B91FFDC95A5C30335ACCDFB886521330D
310
A76397BF1A1DECE883878F57749FD5A3B74D2F17830472A901D9F088930B8B849267CC01754AA418F3DF0D5018572BE160506249B16C274D761E8BCFBB7A179E27F65CB39A0F14D396184C9921B81F34C3ACA1B4B99ABB6E6F062A25AA5F69DF23ACBE504B0304140006080800B670623B3610CA3329010000120200003100
310
00006662782F42384135303843342D343331462D343546312D424341352D3532343432364645413344462F636F72652E786D6C8D515B6EC32010BC0AE22B55850D0E446E848992B43E412FE000495162B07854397EA176A4F62F3F2C9A9D991D58BEBB8F37F0AD7D30CE76905418026DA553C65E3A98E219B510EC04F7CEC5
310
3F3408EC30EA0E16180A7EF12E4D0B249D8DDAC68C5AA7F4020E21E80881BCE54B0783FCD2E3500D296646B856D320AFC34557A4CAEDCC133C449F0380794839A138B47B86DB2345744D7A44594FD0E1B867883594369BFE63BF7EEF793D0B054FC9A8456E548E63CE46FB674D8A58F068C6477CE9F510B582A2C1F80D1182
310
70F349E816B32D65AFB8DD62CCEB42FF274A937A52948C8DEB66893BCB021484D7734370E5D2E9F608A3EF93F3119479ABA0E50B14B8C298119A43CCC4FCFCECB8A18B6388CEE7EF5D5D4F994BD86CBBA182D76543B9FCAE2FD7B24DF103504B0304140006080800B670623B1B8617914E0100003303000030000000666278
310
2F42384135303843342D343331462D343546312D424341352D3532343432364645413344462F636E782E786D6CD593C16EC32010447F0571AD6CE3D489D20813A9877E410FBD62D82434182CC055F3F75D1292E692438FBD206B7698593D61BEFD1E2DF982108D773D6D6B460938E5B571FB9ECE6957AD29D90A1EBC4F7736
310
4A9C1CA1A759A682EF839FA72269D8C9D92654AD71C72206887E0E0A22CAF926B15E498B01E0AA19451807D01A34B919F16B070157417138917400F2F6FA41FCF0092A45DEE414C19BDC21783E4BD39D891265658C3D8DEA00A3ACE59CBC8678ACB54CB26EEB6BD7839D7E9348BE70AD9C8321B9BCA7F9A4A26C542347DEE0
310
50F09802D22BA6749A800A394DD62899107273365E3C82CFC6A55557BC06C10774B7ABE7AEC3B0F34CF06446280E154026D0542C187BA9DAB6628BF7B6DBB0E5A65B3EB1F58631DE64BBE083F7B65CC218087E22CABB042E51D1F2268F1FE12B3EA24D40D63E9CFE00120194D60B9D5BC67FE6D39CDF37E20AF817881F504B
310
0304140006080800B670623BBFEF2E3B690500003C100000340000006662782F42384135303843342D343331462D343546312D424341352D3532343432364645413344462F6F626A656374732E786D6CAD575D739B3814FD2B0CFB0C98D84E931D4227B6938EA793B6534F3BFB90198F0099B001899144EAECAFDF231018B0
310
D37A3FFC609090EEE7B94757C1FB7D915B2F54C88CB31BDB7727B64559CC938CA53776A576CE956DBD0F03C1B9EA2DB32D460A7A63EB693B0C52C1ABD24C257447AA5C8D66EF177F5832A68CDA569C13296F6C193FD182B8A4523CA1F2D94D88226EBADBBBBEDB2C1C8A4D05299F46424B222853B014F30C52ACC6287F389C
310
D85E1878FA7B18E87FB36AFAF62AAFF667A83F635211161F291B8999FAB3D5DDC5FCDA99CF6653677679E13B8BFBC5CAF1DF4D27CBCBE5F2FAF6EE1A8AA51290642C117467871F101B91C581D77CEA2C36869F3229E68CD1B8F61F1ED6361B89092D294B90C78C4A68EB793D190E7D1D9BDEE7A91E1B95FDE9F3BCEAEFE809
310
6A6D6F9F7D4B79F4275C90E7A04248AA51D5C4C738DAE06F72885AC4796EBE65D22A88A22223B995679120E2D50EB1542F098381188D4EA111AE3DB043FF20AF6F2B4AE3D7D83D65E5AECA730D4D3BAC91BD05FEA992B565D95F549CD6069B90AB2A63EACA38A45E4B6A87D781574F86817E4C2FCCC72690D62E2729520E37
310
9BAF234797BAF6D62B3BFC781FED37BA1E4F2B2F052FA9501A3E80569BB8F6A9A364D4FA67654E6F803383981F82F21591FF84F23D9882BC896C3FDBCF8C162508933B2E0AE4C69DD43F6BD2BE38DDDBF10BF86CB4FA784D37F3AF16075E67EC9030DECA1FC0A55373F5DFF3378C591FA9BDF485C10B0A8C8BA909E5262639
310
A8E72163488806A595734C81CB77D1DE0ED7604A303B76913CEC0272F412782FF88EFF4636D8AA56DF7B322474C4B767303F625997056C7B032C473C592B36CEBD15F3F9FF5233B7ABCDC74D257624A60F8658567497B14CE1EC3C80B76FD02011038F9EE9EB0F2E12387A9C844D3F09855125116D1D731DF8B43D2CF4E0A0
310
79A020C6BE946BCE0B7EA1E1219331CD73C228AF5A2DDD31A4B1DA918CE91350854D40A71723140BFA92E94E62B0626016CEFA5864A50E5977E8753CEDBEE1CBB7F52780D20E17AF0BA0F5F9B02A3AD07DCC732EB6D1EBB661421BE0C39E21BABF0FE16D22EA6929407C8DE596724C88B749B6DB5512BC7B228ADFD7CB7EA6
310
3A22397E690BA8D5D8D4E40CEC8CDA23C2C0B7D5898640101CEC9C6D331CE328CB93CAFBBAC70A642DF70DF95155945B52F08AA973C23469FD69ADEF84F7BB18F983A8F8C90E37F5D35980B2139A1C523540813E824EF83448CF7C72B598CE97D7CEEDDDDD3B6736BFBC771677EF66CE6A7E7139F7A793E9EDF2B2B3A8B624
310
0CDA13AA5F8388264EC4A0129909F3B7F5A16CEDF08128E97D680ACA4B9BE7B7B58BB638F0B00700EF36AE8B32A705658A68F83EE897FC2B41573190D1CCAF0B92D233A47CFEB019D9809933F67DD1A5467F8CF69AD9A5AE859342D45355448C64F968A371DC2D596ADC6E43D93D1B466F877A64E2893E54F23C4B40388995
310
525E5005DA3983ED45412510D3EFCA13737B3863F74BD30F2A12E5B4B5E489A025CE25500DB855B11ACE5BBFA185D35DD48D8DC3CE7DC69F2944DB42AA6F6CF09BCA622ADD08C7A36E7C6AE18000BAB08E040135C2D21C9D75B3A91B77BB746C403F38018DFE6EC939DD92F16B40BC05294B9CDA035AAD6D330AE27FE4786B
310
8E45145EA34A75BE1C263A676A35A8ACC6297337400BF16C54EF515F3F77CB77EB3583889C754FFA29081AA98E2222ADEF05DA3E63D2EDEA8B8756C05A7FB6CABC4A91CBF325398202CC952E70A008A830324BA200D5E5EF8F5F04C75DB4B0EE3340E071C98B823333B83577596BF3849B69F2085AA0FAFA212F26BEFF5877
310
FDE622B28D88A42E49E43326DA82D31E8CB006401E1DA726059ECEC168F97A6599036306A135688F9AD2E61A6EA178F4CD51974A9F2CCB9F36FE5EBD14601068D9C3BF01504B0304140006080000B670623B000000000000000000000000350000006662782F42384135303843342D343331462D343546312D424341352D35
310
32343432364645413344462F76657274696365732E62696E504B0304140006080800B670623BF270F1330600000004000000360000006662782F42384135303843342D343331462D343546312D424341352D3532343432364645413344462F747269616E676C65732E62696E636660600000504B0304140006080000B67062
310
3B000000000000000000000000370000006662782F42384135303843342D343331462D343546312D424341352D3532343432364645413344462F617474726962757465732E62696E504B0304140006080800B670623B08DA0BD19000000041010000360000006662782F42384135303843342D343331462D343546312D4243
310
41352D3532343432364645413344462F6469726563746F72792E786D6C858F410AC3201045AF22B36F53E9A60B35CBEEBAE80D244E44489C6234F4F835464A48035D0DF398FF9F8AF63D0E6CC63039F212F8F9020C7D47C6792B21C5FE7403D62A1188E2E60C98D7234A5830286103A55745067B9D86B8A3CF9C7F90C11DE6
310
07FB144396D7B6A82D282E9A152AD114D5EF2CB866EEE831B8EEA07A7BB5A8D7D61A2BAAEB7FD5F70921FF497D00504B0304140006080800B670623B3B4606F3FE000000A00100003B0000006662782F42384135303843342D343331462D343546312D424341352D3532343432364645413344462F7265736F75726365732F
310
636F72652E786D6C8D504B6E833010BD0A9A6D65B08134808CA354A427E8052C332156828DFCA97AFC9A40A576D7CDCCE87D344F8F9FBEE647F689CE6B6B7A6039850C8DB2A336530F315C4903D94970676DF82583CCC8197B5861107C72362E3BA4AC096842428D1D7107A5F71820538F74F4E0D50D6799CB1892C2DFF345
310
AABB9C306779A2934E701F5C0A906D4FD609C2A1B7D129F4BCD858C163D4E3AED163FAA9AF1A1D88F67CA98E6D35906AA82A52BFB39ABCD5CD915C86331BD86BD3B665CD8BD52C78D0F34F46E550061C419494B6843142CB0F5677F4D0D58717DA7494F26295FF31C565FCA7296A13AA728FBBD93C0896823C09C18BB5AFB4
310
9E65A6BD762BBE01504B010214000A0000080000B670623B3DEE336E79000000790000001B00000000000000000000000000000000006175746F6465736B2D64657369676E2D7061636B6167652E786D6C504B01021400140006080800B670623BD486FD9CA0000000F40000001300000000000000000000000000B2000000
310
5B436F6E74656E745F54797065735D2E786D6C504B01021400140006080800B670623B28ED286BEB0000007C010000080000000000000000000000000083010000636F72652E786D6C504B01021400140006080800B670623B55019EA25F0000007C000000070000000000000000000000000094020000636E782E786D6C50
310
4B01021400140006080800B670623B7BC41AC871010000D40300000C00000000000000000000000000180300006662782F636F72652E786D6C504B01021400140006080800B670623B70102A487D0000009D0000000B00000000000000000000000000B30400006662782F636E782E786D6C504B01021400140006080800B6
310
70623B3610CA3329010000120200003100000000000000000000000000590500006662782F42384135303843342D343331462D343546312D424341352D3532343432364645413344462F636F72652E786D6C504B01021400140006080800B670623B1B8617914E010000330300003000000000000000000000000000D10600
310
006662782F42384135303843342D343331462D343546312D424341352D3532343432364645413344462F636E782E786D6C504B01021400140006080800B670623BBFEF2E3B690500003C10000034000000000000000000000000006D0800006662782F42384135303843342D343331462D343546312D424341352D35323434
310
32364645413344462F6F626A656374732E786D6C504B01021400140006080000B670623B0000000000000000000000003500000000000000000000000000280E00006662782F42384135303843342D343331462D343546312D424341352D3532343432364645413344462F76657274696365732E62696E504B010214001400
310
06080800B670623BF270F133060000000400000036000000000000000000000000007B0E00006662782F42384135303843342D343331462D343546312D424341352D3532343432364645413344462F747269616E676C65732E62696E504B01021400140006080000B670623B00000000000000000000000037000000000000
310
00000000000000D50E00006662782F42384135303843342D343331462D343546312D424341352D3532343432364645413344462F617474726962757465732E62696E504B01021400140006080800B670623B08DA0BD1900000004101000036000000000000000000000000002A0F00006662782F42384135303843342D3433
310
31462D343546312D424341352D3532343432364645413344462F6469726563746F72792E786D6C504B01021400140006080800B670623B3B4606F3FE000000A00100003B000000000000000000000000000E1000006662782F42384135303843342D343331462D343546312D424341352D3532343432364645413344462F72
310
65736F75726365732F636F72652E786D6C504B0506000000000E000E0080040000651100000000
  0
XRECORD
  5
187
102
{ACAD_REACTORS
330
186
102
}
330
186
100
AcDbXrecord
280
     1
 70
     1
 90
429727718
  1
887D55A9-D0DD-414E-B741-A7DCD4DA2B4C
310
504B03040A0000080000B670623B3DEE336E79000000790000001B0000006175746F6465736B2D64657369676E2D7061636B6167652E786D6C3C3F786D6C2076657273696F6E3D22312E302220656E636F64696E673D227574662D3822203F3E3C666F726D6174733E3C666F726D61743E687474703A2F2F736368656D612E
310
6175746F6465736B2E636F6D2F64657369676E2D7061636B6167652F323030393C2F666F726D61743E3C2F666F726D6174733E504B0304140006080800B670623BD486FD9CA0000000F4000000130000005B436F6E74656E745F54797065735D2E786D6C7D8EC10E82300C865F65E91D8A1E8C310C0EEA1BF002731658846E
310
D98AC1B77784ABF1D8FE5FBFBF75BBCE937A534CCEB38643598122B6FEE978D0B0485F9C41B54DDD7D022595594E1A469170414C76A4D9A4D207E29CF43ECE46F218070CC6BECC4078ACAA135ACF422C856C0E68EA1BF5669944DDD7BCDE7B1F8E415D77AECB980613C2E4AC91FC167A2B244592486606FC29C8FD7F045B9A
310
EF7053A7E60B504B0304140006080800B670623BBC1638F5EC0000007C01000008000000636F72652E786D6C8D90416EC3201045AF82665B61836BE2D8C24471DB9CA01740401C94182C03558F5F9C3852BBEB6A467FFE9B197D7EF89E6EE8CB2CC17AD7032D0820E394D7D68D3DA478C67B4007C117EFE32F1B202727D3C3
310
2A83E0E3E2D3BC49CABB685CCCAAF3DA6CA20CC14440EA969B1E82BA98491632C5EC08D76296EA2A4753D06797E194AC468F2356E77DF66CCD02825543D50CACC62D39ED70FDC68EB8FD68F6F8787A6784342D1DDA1D2F5758F068A7E77DB518198D065111D2624A31A93E69DD11D6D5EC85EC3B4278B9DAFF4069D6FF8492
310
75F1B5DADE7D600104CD8FDC0782976B16B9DC83CA75CD4DFC00504B0304140006080800B670623B55019EA25F0000007C00000007000000636E782E786D6C4DCB3B0E80201045D1AD90E915ED2CF8AC45050C11660C8261F98AB1B07AC9C97D42D718D865D3E909258CFD00CCE24AC6E326A164D74DC0B4128928FF326038
310
472BA13128B1252AC747C6BAB984FC68F0B87FE8960A5C09FE86CFB69FBA01504B0304140006080800B670623B3586FFB671010000D40300000C0000006662782F636F72652E786D6CC553ED6E8320147D15C2DF4541A76D6D90A6DDD627D80B50A4CE54C120983EFEAE1F4DD7A55BBA5FF3879273EEE59E7310B6393735EA
310
95ED2AA3731C851423A5A5292A5DE6D8BB63B0C268C39935C67D29C3488B46E578803167A535BE9D2169B453DA01AA4DA16650749D7218C91A1639EEE4876A4428BC838AEE14B6429E44A9C228041AEA38EB9C0501681A32BC313F1ECE8C4C3867DE57C5CC56054CAB8E95B298A7F12E5EEED224C8E87E11242FE936C8DE96
310
AB60BB7F4D295D66D12E5B30323473E6AAE6A24E5A259C2A308F29CD82280A68FC1E256B9AAE93F489AED694323294DF34F9B678B0C957DA3DC7B3DCA9ADC33C022123F1CD2D44E450277AD04338234388F01913BE0D1A0281909D38D4171F27807A259DB1093085F157AA17B557309586747CD0CF0B46A64E983A6E0EAEEF
310
CE881F9EF1FB8E70D44297604238581EBC1B74B249C31C5AAB6CD0BB33D2C636A27ECCC62F0EFF445DC5DF95244D6DEC7F2922F30191F9F720C37DE49F504B0304140006080800B670623B4220A0FF7D0000009D0000000B0000006662782F636E782E786D6C4DCCD10A83201886E15B91FFDCE542CB0335D0EC3E6259C84A
310
C3E9D8E5AF46073BFAE0E1E315DD675BD1DBA5978F41C2FD4600B9F088930F8B849267CC01754AA418F3DF0D50183727E164506249B1EC174D6E1ECB9A0F5D7D785E68DB8151CD286E5A5363CA6B8A39E90D36D40E96B086F55A43A544F52B1D7B86D517504B0304140006080800B670623B2FA3FEDE290100001202000031
310
0000006662782F45374635344235342D363743322D343832342D383044432D4334454645303536354442422F636F72652E786D6C8D515B6EC32010BC0AE22B55850D2E386E848994D7097A0117488A1283C5A3CAF10BB523B57FF961D1ECCCECC0F2ED7DBC816FED8371B687A4C210682B9D32F6D2C314CFA883602BB8772E
310
FEA141608751F7B0C050F08B77695A20E96CD43666D43AA5177008414708E42D5F7A18E4971E876A483133C2B59A06791D2EBA22556E679EE021FA1C00CC43CA09C5717D6274C7286AD7FB06D1AEA1A8C3873DDAD3E3E98859CB0EBB1DAF67A1E02919B5C88DCA71CCD968FFAC49110B1ECDF8882FBD1EA256503418BF2342
310
106E3E08DD60B6A1EC15771B8C795DE8FF4469524F8A92B1F1AD59E2CEB20005E1F5DC105CB9F4797B84D1F7C9F908CABC55D0F2050A5C61CC1AD2F27A26E6E767C7962E8E213A9FBF7775FDCC5CC266DB960A5E970DE5F2BBBE5CCB36C50F504B0304140006080800B670623B1B8617914E01000033030000300000006662
310
782F45374635344235342D363743322D343832342D383044432D4334454645303536354442422F636E782E786D6CD593C16EC32010447F0571AD6CE3D489D20813A9877E410FBD62D82434182CC055F3F75D1292E692438FBD206B7698593D61BEFD1E2DF982108D773D6D6B460938E5B571FB9ECE6957AD29D90A1EBC4F77
310
364A9C1CA1A759A682EF839FA72269D8C9D92654AD71C72206887E0E0A22CAF926B15E498B01E0AA19451807D01A34B919F16B070157417138917400F2F6FA41FCF0092A45DEE414C19BDC21783E4BD39D891265658C3D8DEA00A3ACE59CBC8678ACB54CB26EEB6BD7839D7E9348BE70AD9C8321B9BCA7F9A4A26C542347DE
310
E050F09802D22BA6749A800A394DD62899107273365E3C82CFC6A55557BC06C10774B7ABE7AEC3B0F34CF06446280E154026D0542C187BA9DAB6628BF7B6DBB0E5A65B3EB1F58631DE64BBE083F7B65CC218087E22CABB042E51D1F2268F1FE12B3EA24D40D63E9CFE00120194D60B9D5BC67FE6D39CDF37E20AF817881F50
310
4B0304140006080800B670623B29652116630500003C100000340000006662782F45374635344235342D363743322D343832342D383044432D4334454645303536354442422F6F626A656374732E786D6CAD575D739B3814FD2B0CFB0C989834C90EA1639B24E3E9A6EDD4D3CE3E64C623834CD8006224913AFDF57B040203
310
B65BEF871F0C12D2FD3CF7E8CA7FBFCB33E3957291B2E2D674ED8969D02262715A24B76625B7D6B569BC0F7CCE98EC2D338D82E4F4D654D366E0279C55A59E8AE99654991CCDDECFFF3444440B6A1A514684B83545F44C7362934AB2988A173B2692D8C97667BB76B3702836E1A47C1E092D09A78584A5982F20C5688C7287
310
C389E904BEA3BE07BEFAD7ABA6A75739B53F43FD69212429A20365233153D70BEF2E2E6FAC4BCF9B5ADEBB0BD79ADFCF43CBBD9A4E16EF168B9BD9DD0D140BC921495BC2E9D60C1E101B9E46BED37CEA2CD6861F3329624541A3DA7F7858DBAC25C6B4A4458C3CA654405BCFEBC970E8AAD8F43E4FD558ABEC4F9FE7557F47
310
4F506B7BFBEC5BCA367FC105710E2AB8A00A554D7CB4A30DFE26FBA86D18CBF4B75418399194A72433B274C3097F33032C554B027F2046A1932B842B0FCCC0DDCBEBDB8AD2F835768F59B9ADB24C41D30C6A64AF817F2A456D59FA83F2E3DA60137255A585BCD60EC9B7929AC18DEFD49381AF1ED30BFDB109A4B1CD488294
310
C3CDE6EBC8D185AABD6568061FEE37BB95AAC7E3CA4BCE4ACAA5820FA0D526AE7DAA2869B5EE5999531BE0CC20E6FBA07C41E43FA27CF7A6206F3CDD793B4F6B919C1462CB788EDCD893FA674CDA17AB7B3B7C019F8D561FAEE966FED562DFE98C1D12C6A9FC015C2A35D7FF3D7FC398F591DA4B5FE0BFA2C0189FEA50AE22
310
92817A1ED3020951A03432862970F976B33383259812CC8E5D240BBA801CBCF8CE2BBEE3BF910DB6AAD5F79E05123AE2DB33981FB1ACCB02B69D00CB014FD68AB573A7627EF9BFD4CC2C5C7D58557C4B22FAA88925A4DBB44825CECE3D78FB060D1231F0E885BE7D673C86A3874958F593906B5502D1563157814FDAC3420D
310
F69A070A22EC4B98E23CFF171A1E5311D12C23056555ABA53B8614563B92D17D02AAB009E8F46284624E5F53D5490C560CCCC2591FF1B45421EB0EBD8EA7ED13BE7C5D7E0428CD60FEF60779EB13E6664FF711CB185F6FDED60D139A001FF60CD1FD6D086F1D51474901E26B2CB794A343BC8ED3EDB612E0DD2351FCB65CF4
310
33D511C9E14B5B40ADC6A6263DB0336A8F700DDF56271A024E70B0B3629DE21847591E55DED73D56206AB927E46FAABC5C939C55853C274C93D69FD6FA4E78BF8B11DF898C9ECD60553FAD39283BA6F18984AA23E8884F83F45C5F5F859797B31B2B9C84A1E5B9DE9D35BFF25C6B76152E422F9C5DCC3D847F5801ED09D5AF
310
41441327A25FF15487F9EB725FB666F048A4701E9A827292E6F97569A32DF61DEC01C0BB8DCBBCCC684E0B49147C1FD54BF685A0AB18C868E6973949E819523E3DAC463660E68C7D9F55A9D1EFA3BD7A76A16AE1A810F95CE59B82A4D968A376DC2E8B44BBDD86B27B368CDE0ED548C7137DA860591A83706223A12CA712B4
310
7306DBF39C0A20A6DF95C7FAF670C6EED7A61F946493D1D6926782963813403548A78AE470DEF80D2D9CEAA26E4D1C76F60BFE74219A06527D6B82DF641A51616F703CAAC6A7160E08A00BEB4810A0274592A1B36E3675E36E978A0DE80727A0D6DF2D39A75BD27E0D8837276589537B40ABB56D5A41F48F1C6FCD3188C4EB
310
A6929D2FFB89CE995A4D00AE813BDD032DC48B56BD437DFDDC2DD7AED70C2272D63DE9A72068A45A92F0A4BE17A8A06B9366E16707AD80B1FC649459952097E74BB23805982B55E0401150A165964402AA8BDF9F3E7386BB686EDCA780C0D382E5392BF460A6EFB2C6EA1937D3F809B440D5F5435C4C5CF7A9EEFAF54564BD
310
2182DA24162F98680B4E7930C21A0079709CEAEB99A372305ABE0C0D7D6078105A83F6A0296DAEE1068A47DD1C55A9F4C9B2FC69E3EFD44B81028E963DF81B504B0304140006080000B670623B000000000000000000000000350000006662782F45374635344235342D363743322D343832342D383044432D433445464530
310
3536354442422F76657274696365732E62696E504B0304140006080800B670623BF270F1330600000004000000360000006662782F45374635344235342D363743322D343832342D383044432D4334454645303536354442422F747269616E676C65732E62696E636660600000504B0304140006080000B670623B00000000
310
0000000000000000370000006662782F45374635344235342D363743322D343832342D383044432D4334454645303536354442422F617474726962757465732E62696E504B0304140006080800B670623B08DA0BD19000000041010000360000006662782F45374635344235342D363743322D343832342D383044432D4334
310
454645303536354442422F6469726563746F72792E786D6C858F410AC3201045AF22B36F53E9A60B35CBEEBAE80D244E44489C6234F4F835464A48035D0DF398FF9F8AF63D0E6CC63039F212F8F9020C7D47C6792B21C5FE7403D62A1188E2E60C98D7234A5830286103A55745067B9D86B8A3CF9C7F90C11DE607FB144396
310
D7B6A82D282E9A152AD114D5EF2CB866EEE831B8EEA07A7BB5A8D7D61A2BAAEB7FD5F70921FF497D00504B0304140006080800B670623B6378F24DFF000000A00100003B0000006662782F45374635344235342D363743322D343832342D383044432D4334454645303536354442422F7265736F75726365732F636F72652E
310
786D6C8D504B6E833010BD0A9A6D65B0094E42641C85B639412F6099496225D8C89FAAC7AF09546A77DDCC8CDE47F3F4C4F16B7C149FE88371B603565228D06A37187BED20C50BD9437194C23B177FC9A0B06AC40E6618A4B87A97A615D2CE46B431A3D60DB8822A048C50E8473E3A08FA86A32A558A5911EEE5A4F45D5DB1
310
6465A6B34E8A107D0E502C4FE609D26370C96B0CA25A58295232C3AA3143FE692E063D485EF7F5AEE71BD2D2F39634AFFC44DAF7DD9E9CCE6F9CD25DCBFA762BAAD92C4534E34F46ED51451C40D694B6843142EB0FD61C283F34FC85EE0F948A6A96FF31A569F8A729191B37F51A77B105902C0779125254735F793DCBCC7B
310
EE567E03504B010214000A0000080000B670623B3DEE336E79000000790000001B00000000000000000000000000000000006175746F6465736B2D64657369676E2D7061636B6167652E786D6C504B01021400140006080800B670623BD486FD9CA0000000F40000001300000000000000000000000000B20000005B436F6E
310
74656E745F54797065735D2E786D6C504B01021400140006080800B670623BBC1638F5EC0000007C010000080000000000000000000000000083010000636F72652E786D6C504B01021400140006080800B670623B55019EA25F0000007C000000070000000000000000000000000095020000636E782E786D6C504B010214
310
00140006080800B670623B3586FFB671010000D40300000C00000000000000000000000000190300006662782F636F72652E786D6C504B01021400140006080800B670623B4220A0FF7D0000009D0000000B00000000000000000000000000B40400006662782F636E782E786D6C504B01021400140006080800B670623B2F
310
A3FEDE290100001202000031000000000000000000000000005A0500006662782F45374635344235342D363743322D343832342D383044432D4334454645303536354442422F636F72652E786D6C504B01021400140006080800B670623B1B8617914E010000330300003000000000000000000000000000D2060000666278
310
2F45374635344235342D363743322D343832342D383044432D4334454645303536354442422F636E782E786D6C504B01021400140006080800B670623B29652116630500003C10000034000000000000000000000000006E0800006662782F45374635344235342D363743322D343832342D383044432D4334454645303536
310
354442422F6F626A656374732E786D6C504B01021400140006080000B670623B0000000000000000000000003500000000000000000000000000230E00006662782F45374635344235342D363743322D343832342D383044432D4334454645303536354442422F76657274696365732E62696E504B01021400140006080800
310
B670623BF270F13306000000040000003600000000000000000000000000760E00006662782F45374635344235342D363743322D343832342D383044432D4334454645303536354442422F747269616E676C65732E62696E504B01021400140006080000B670623B0000000000000000000000003700000000000000000000
310
000000D00E00006662782F45374635344235342D363743322D343832342D383044432D4334454645303536354442422F617474726962757465732E62696E504B01021400140006080800B670623B08DA0BD190000000410100003600000000000000000000000000250F00006662782F45374635344235342D363743322D34
310
3832342D383044432D4334454645303536354442422F6469726563746F72792E786D6C504B01021400140006080800B670623B6378F24DFF000000A00100003B00000000000000000000000000091000006662782F45374635344235342D363743322D343832342D383044432D4334454645303536354442422F7265736F75
310
726365732F636F72652E786D6C504B0506000000000E000E0080040000611100000000
  0
XRECORD
  5
112
102
{ACAD_REACTORS
330
110
102
}
330
110
100
AcDbXrecord
280
     1
270
     1
271
     1
  0
XRECORD
  5
111
102
{ACAD_REACTORS
330
110
102
}
330
110
100
AcDbXrecord
280
     1
270
     1
271
     1
  0
XRECORD
  5
18A
102
{ACAD_REACTORS
330
110
102
}
330
110
100
AcDbXrecord
280
     1
 70
     0
 90
1778669749
  1
9BF507EE-FAF7-4A99-A33D-4EE51894BC40
310
504B03040A0000080000B670623B3DEE336E79000000790000001B0000006175746F6465736B2D64657369676E2D7061636B6167652E786D6C3C3F786D6C2076657273696F6E3D22312E302220656E636F64696E673D227574662D3822203F3E3C666F726D6174733E3C666F726D61743E687474703A2F2F736368656D612E
310
6175746F6465736B2E636F6D2F64657369676E2D7061636B6167652F323030393C2F666F726D61743E3C2F666F726D6174733E504B0304140006080800B670623BD486FD9CA0000000F4000000130000005B436F6E74656E745F54797065735D2E786D6C7D8EC10E82300C865F65E91D8A1E8C310C0EEA1BF002731658846E
310
D98AC1B77784ABF1D8FE5FBFBF75BBCE937A534CCEB38643598122B6FEE978D0B0485F9C41B54DDD7D022595594E1A469170414C76A4D9A4D207E29CF43ECE46F218070CC6BECC4078ACAA135ACF422C856C0E68EA1BF5669944DDD7BCDE7B1F8E415D77AECB980613C2E4AC91FC167A2B244592486606FC29C8FD7F045B9A
310
EF7053A7E60B504B0304140006080800B670623BCA089DFFEC0000007C01000008000000636F72652E786D6C8D90416E83301045AF62CDB632D8402020E32882F604BD80653BC44AB011B6AB1EBF262152BBEB6A467FFE9B197D76FA9EEFE84BAFDE38DB03CD08206DA553C64E3DC470C1474027CE56E7C22F1B202B66DDC3
310
260367D3EAE2B24BD2D9A06D48AA754AEFA2F05E0740F29E9A1EBCBCEA59642286E4F0B76C11F226269DD15797E0188D42CF2346A57DE662F40ABCAEC77628C6120F654571D50C04B7F5B9C1E3997CD4F550BE3745C3F20DE62C98F9755FAE5A04AD801784B498524C8A4F5A75E4D055873772EC0861F966FF03C545FD138A
310
C686B2D8DF7D621E384D8F3C069CE55B16A93C824A75CB8DFF00504B0304140006080800B670623B55019EA25F0000007C00000007000000636E782E786D6C4DCB3B0E80201045D1AD90E915ED2CF8AC45050C11660C8261F98AB1B07AC9C97D42D718D865D3E909258CFD00CCE24AC6E326A164D74DC0B4128928FF326038
310
472BA13128B1252AC747C6BAB984FC68F0B87FE8960A5C09FE86CFB69FBA01504B0304140006080800B670623B68FC0B7272010000D40300000C0000006662782F636F72652E786D6CC5535B6E833010BC8AE5DF0A6C1E8124328E22D29EA01770C0A128602363A31CBFCB234A53A555FA553EC09AD9F5CE8C31DB5DDA060D
310
D2F4B556190E7C8A9154852E6B5565D8D993B7C668C799D1DA7E29C3488956667884316795D1AE5BA0422B2B950554E9522EA0E87B69312A1A5864B82F3E642B7CE12C54F467BF13C55954D20F7CA0A18EB3DE1A1080E621E31BF3D3F1C2C88C73E65C5D2E6C5DC2B4FA544B8379921C36797888BC3C8A032F4E73EA6D927D
310
EA1DF6F42D49F2E8350D5346C666CE6CDD5ED515460A2B4BCC434A375E1078347C0FE22D5D6DE3D50B5D6F2965642CBF6B725DF96493AB958DC245EEDCD6631E809089F8E61622B2A81703E8219C913144F84C09DF070D8140C8561C9BAB8F3340832CAC363130A576376A108D933095FA747AD0CF0B46E64E983A6D0EAE1F
310
CE089F9EF1FB8E70D44255604258581E9D1D75B259C3125A278D37D80B52DAB4A279CEC62F0EFF44DDC43F9454E8469BFF5244960322CBEF41C6FBC83F01504B0304140006080800B670623B0F71DDB67E0000009D0000000B0000006662782F636E782E786D6C4DCCD10A83201886E15B91FFDCA54DB73F502386BB8F5816
310
32D3703976F9ABD1C18E3E78F87855FB990379BBFCF2296AE02706C4C5471A7C9C349475A408A4352AA7B4FEDD80C47E761A7606A3A69CCA72D0E0C6BE8475D3E0E3F3409428EA6B27A84079A782899AA2EC1A7AE3ECCC2FD858CB2D544655BFD2B67BD87C01504B0304140006080800B670623BE134B4FB28010000120200
310
00310000006662782F38353834323741342D343835462D343034322D383541392D4331303331363839454531452F636F72652E786D6C8D515B6EC32010BC0AE22B55850D0EA424C24451959EA0172086A42831583CAA1CBF503B52FB971F16CDCECC0EACD8DFC71BF836215AEF7A481A0C817183D7D65D7A98D3197108F652
310
04EFD31F1A044E8DA6871586525C82CFD3020DDE25E352419DD76601558C264130DCCAA58771F832A36A544E8511AFCDA486ABBA988634A55D7852C4144A00300FA927949C71DABD1D28A29C7D208A6987383B6CD13BC16BB2E1DBE3911C453B0BA5C8D9EA456E758963CFD684674DAA588A64C747FC2118958C86B2C3788B
310
0841B8FB247487D98EB257CC77188BB6D2FF89F2A49F1465EBD2BA5BE2CEB2082511EDDC9042FB7CBA3DC298FBE4430275DE2A9AE1054ADC60CC08E3A29D89E5F9C5714317C7987C28DFBBBA9E0A97B0D97643A568EB864AF95D5FA9759BF207504B0304140006080800B670623B1B8617914E010000330300003000000066
310
62782F38353834323741342D343835462D343034322D383541392D4331303331363839454531452F636E782E786D6CD593C16EC32010447F0571AD6CE3D489D20813A9877E410FBD62D82434182CC055F3F75D1292E692438FBD206B7698593D61BEFD1E2DF982108D773D6D6B460938E5B571FB9ECE6957AD29D90A1EBC4F
310
77364A9C1CA1A759A682EF839FA72269D8C9D92654AD71C72206887E0E0A22CAF926B15E498B01E0AA19451807D01A34B919F16B070157417138917400F2F6FA41FCF0092A45DEE414C19BDC21783E4BD39D891265658C3D8DEA00A3ACE59CBC8678ACB54CB26EEB6BD7839D7E9348BE70AD9C8321B9BCA7F9A4A26C542347
310
DEE050F09802D22BA6749A800A394DD62899107273365E3C82CFC6A55557BC06C10774B7ABE7AEC3B0F34CF06446280E154026D0542C187BA9DAB6628BF7B6DBB0E5A65B3EB1F58631DE64BBE083F7B65CC218087E22CABB042E51D1F2268F1FE12B3EA24D40D63E9CFE00120194D60B9D5BC67FE6D39CDF37E20AF817881F
310
504B0304140006080800B670623B5933D422630500003B100000340000006662782F38353834323741342D343835462D343034322D383541392D4331303331363839454531452F6F626A656374732E786D6CAD575B6FA33814FE2B887D0642934E9B156594264D158D3A534DD4D13E548A0C38942D60649B4EBABF7E3F8321
310
40924EF6928780CDF1B97EE762EFF32E4B8D37CA45C2F21BD3B547A641F39045491EDF98A5DC5AD7A6F1D9F73863B243661A39C9E88DA9B64DDF8B392B0BBD15D12D295339D85DDEFE618890E6D434C2940871638AF08566C426A5641115AF764424B1E3EDCE76ED9AB0CF36E6A47819302D08A7B984A6D8CFC1C5A89572FB
310
CB91E9F89EA3BEFB9EFAD754E3D3544E654F5F7E920B49F2F040D880CDD89D2CEE2E2EA7D6E56432B6269F2E5CEB7679BBB0DCABF168FE693E9FCEEEA6102C240727AD09A75BD3BF876F78127A4EFDA9D5582B7E4CA590E5390D2BFB6161A5B3E618D182E611E2985001691DAB47FDA5AB7CD3F93C566B2DB2BB7D9E55DD13
310
1D468DEECDB3AB290BFE8409E21C54704115AA6AFF68436BFC8DF65E0B184BF5B74418199194272435D224E084BF9B3E481589EFF5D828747285706581E9BB7B7E5D5D911ABFC6EE312DB7659A2A689A7E85EC0DF04FA5A8344BFEA2FCB834E8845895492EAFB541F2BDA0A63FF59C6AD3F7D4637CA13FD68E34B629891172
310
98597F1D183A57B9B75A98FE9765B05BAB7C3C2EBCE0ACA05C2AF8005A4DE09AA7F29216EB9E15397500C6F47CBE77CA7778FE2BD277AF0AE2C693DD6437D1522427B9D8329E2136F6A8FA19A3E6C56ADF0E5F50CF06D48734EDCEBF22F69C56D97EC138153F804B85E6FABFC7AFEFB32E523BE1F3BD372418E363EDCA7548
310
52949E8724474014288D94610BB57C1BEC4C7F854A89CA8E5324F55B871CBC78CE1BBEE3BFE68D6A5589EF3C730474506FCFA8FCF0659516D0ED04580EEA6425581B77CAE797FF4BCECC16EB2FEB926F49481F746159D06D922712BD730FDEAE42BD40F42C7AA5EF3F198F60E86110D6DD20645A9480B795CF95E3E3A659A8
310
C55E724F408873315335CFFB8584874484344D494E59D94869DB90C26A5B64F49C802CAC1D3ABE18A098D3B7444D123D8A9E5AE8F5214F0AE5B2B6E9B575DA3E61CBD3EA2B4009FA940524DD1305FB6A1FB294F14DF0BEA90BA109ECE1481FDC3FFAE8D60E75141700BE82725371B4873751B2DD960265F788137FACE6DD40
310
B575E4F0A5C99F46629D92131467A41EE11ABD8D4CCC039CA0AFB37C93A08B232B8F0AEFCA1E0A1015DF13FC83322B362463652ECF71D3A8B1A7D1BE65DE1D62C44F22C317D35F574FEB16153BA2D13E543D10A80E74C4A65E78A6B7CBCBD1D5DD9DB59C2DAFACC96C3AB566E3F1C29ADCDD5DBAD7D3C9ED7C822ED74F80A6
310
41755310DE4443F44A9E68373FADF6596BFA0F440AE7BECE2727AE9F4F2B1B53B1E7E00CF0DD1E5C65454A339A4BA2D0FBA05ED2EF0443458F47BDBFCA484CCFE0F2ED7E3DD0013B679C7B5499467F0ECEEADDB9CA85A34CE44B99053949D2C1416DB85DE4B136BB7165FBAC0B7AB3542BED4F8CA182A549847A1319316519
310
95A83A67147B9E5101C47487F2485F1ECE38FD568F839204296D3479219888530154036E6528FBFBC66F98E0D4107563A2D7D9AFF8D389681A08F58D89F22693900A3B407754734FC51C10C010D6D640809EE4718AC1BA3ED4AEDB53CA37283F68805A7E4B72CEB0A4EDEAD5DD8C14059A76AFAA56BA6901E13F32BC51C720
310
12AF41295B5BF61BAD3195181FB506E6B40F4C10AF5AF40EF9F5B159AE5DD1F43C72D635E94310D45C2D49785C5D0B94D3B54AB3C5A38349C0587D338AB48C11CBF339599C02CCA54A70A008A8D03C0B2201D5F9EFCF8F9CE12A9A19CB0410789EB32C63B95ECCF455D658BFE0621A3DA32C5075FB101723D77DAE867E7D0F
310
D90444509B44E2151B4DC2290B065803200FBAA9BE9D392A0603F2D5C2D00D6302A615680F66D2FA166E2079D4C551A54AB758161FCEFD4E450A14704CECFEDF504B0304140006080000B670623B000000000000000000000000350000006662782F38353834323741342D343835462D343034322D383541392D4331303331
310
363839454531452F76657274696365732E62696E504B0304140006080800B670623BF270F1330600000004000000360000006662782F38353834323741342D343835462D343034322D383541392D4331303331363839454531452F747269616E676C65732E62696E636660600000504B0304140006080000B670623B000000
310
000000000000000000370000006662782F38353834323741342D343835462D343034322D383541392D4331303331363839454531452F617474726962757465732E62696E504B0304140006080800B670623B08DA0BD19000000041010000360000006662782F38353834323741342D343835462D343034322D383541392D43
310
31303331363839454531452F6469726563746F72792E786D6C858F410AC3201045AF22B36F53E9A60B35CBEEBAE80D244E44489C6234F4F835464A48035D0DF398FF9F8AF63D0E6CC63039F212F8F9020C7D47C6792B21C5FE7403D62A1188E2E60C98D7234A5830286103A55745067B9D86B8A3CF9C7F90C11DE607FB1443
310
96D7B6A82D282E9A152AD114D5EF2CB866EEE831B8EEA07A7BB5A8D7D61A2BAAEB7FD5F70921FF497D00504B0304140006080800B670623BD9A3B367FE000000A00100003B0000006662782F38353834323741342D343835462D343034322D383541392D4331303331363839454531452F7265736F75726365732F636F7265
310
2E786D6C8D504B6E833010BD0A9A6D65B01D0201194711694FD00B586642AD043BF2A7EAF16B122AB5BB6E6646EFA3797AE2F8B5DC8A4FF4C1383B002B291468B59B8C9D0748F1420E501CA5F0CEC55F3228AC5A708015062966EFD27D83B4B3116DCCA875136EA00A012314FA968F0182FEC045952AC5AC08D7F2AEF455CD
310
58B232D3592745883E07289E4FD609D26370C96B0CA27AB252A464A64D63A6FCD35C0C7A904D73EE467EE664DCD58CD4ED4849D79C5A723ED1B7A61977AF2D6F45B59AA58866F9C9A83DAA8813484E6947182394BFB3BAA7FBBEDEBFD0434FA9A856F91F53BA4FFF342563E38E6F719FB60092E5200F428A6AED2BAF479979
310
AFDDCA6F504B010214000A0000080000B670623B3DEE336E79000000790000001B00000000000000000000000000000000006175746F6465736B2D64657369676E2D7061636B6167652E786D6C504B01021400140006080800B670623BD486FD9CA0000000F40000001300000000000000000000000000B20000005B436F6E
310
74656E745F54797065735D2E786D6C504B01021400140006080800B670623BCA089DFFEC0000007C010000080000000000000000000000000083010000636F72652E786D6C504B01021400140006080800B670623B55019EA25F0000007C000000070000000000000000000000000095020000636E782E786D6C504B010214
310
00140006080800B670623B68FC0B7272010000D40300000C00000000000000000000000000190300006662782F636F72652E786D6C504B01021400140006080800B670623B0F71DDB67E0000009D0000000B00000000000000000000000000B50400006662782F636E782E786D6C504B01021400140006080800B670623BE1
310
34B4FB280100001202000031000000000000000000000000005C0500006662782F38353834323741342D343835462D343034322D383541392D4331303331363839454531452F636F72652E786D6C504B01021400140006080800B670623B1B8617914E010000330300003000000000000000000000000000D3060000666278
310
2F38353834323741342D343835462D343034322D383541392D4331303331363839454531452F636E782E786D6C504B01021400140006080800B670623B5933D422630500003B10000034000000000000000000000000006F0800006662782F38353834323741342D343835462D343034322D383541392D4331303331363839
310
454531452F6F626A656374732E786D6C504B01021400140006080000B670623B0000000000000000000000003500000000000000000000000000240E00006662782F38353834323741342D343835462D343034322D383541392D4331303331363839454531452F76657274696365732E62696E504B01021400140006080800
310
B670623BF270F13306000000040000003600000000000000000000000000770E00006662782F38353834323741342D343835462D343034322D383541392D4331303331363839454531452F747269616E676C65732E62696E504B01021400140006080000B670623B0000000000000000000000003700000000000000000000
310
000000D10E00006662782F38353834323741342D343835462D343034322D383541392D4331303331363839454531452F617474726962757465732E62696E504B01021400140006080800B670623B08DA0BD190000000410100003600000000000000000000000000260F00006662782F38353834323741342D343835462D34
310
3034322D383541392D4331303331363839454531452F6469726563746F72792E786D6C504B01021400140006080800B670623BD9A3B367FE000000A00100003B000000000000000000000000000A1000006662782F38353834323741342D343835462D343034322D383541392D4331303331363839454531452F7265736F75
310
726365732F636F72652E786D6C504B0506000000000E000E0080040000611100000000
  0
XRECORD
  5
113
102
{ACAD_REACTORS
330
110
102
}
330
110
100
AcDbXrecord
280
     1
270
     1
271
     1
  0
XRECORD
  5
114
102
{ACAD_REACTORS
330
110
102
}
330
110
100
AcDbXrecord
280
     1
270
     1
271
     1
  0
XRECORD
  5
D13
102
{ACAD_REACTORS
330
D12
102
}
330
D12
100
AcDbXrecord
280
     1
102
DISPLAYNAME
  1
Imperial24
102
FLAGS
 90
        0
  0
XRECORD
  5
D17
102
{ACAD_REACTORS
330
D16
102
}
330
D16
100
AcDbXrecord
280
     1
102
DISPLAYNAME
  1
Metric50
102
FLAGS
 90
        0
  0
CELLSTYLEMAP
  5
D07
102
{ACAD_REACTORS
330
D06
102
}
330
D06
100
AcDbCellStyleMap
 90
        3
300
CELLSTYLE
  1
TABLEFORMAT_BEGIN
 90
        5
170
     1
 91
        0
 92
    32768
 62
   257
 93
        1
300
CONTENTFORMAT
  1
CONTENTFORMAT_BEGIN
 90
        0
 91
        0
 92
      512
 93
        0
300

 40
0.0
140
1.0
 94
        5
 62
     0
340
20C
144
0.25
309
CONTENTFORMAT_END
171
     0
 94
        6
 95
        1
302
GRIDFORMAT
  1
GRIDFORMAT_BEGIN
 90
        0
 91
        1
 62
     0
 92
       -2
340
0
 93
        1
 40
0.045
309
GRIDFORMAT_END
 95
        2
302
GRIDFORMAT
  1
GRIDFORMAT_BEGIN
 90
        0
 91
        1
 62
     0
 92
       -2
340
0
 93
        1
 40
0.045
309
GRIDFORMAT_END
 95
        4
302
GRIDFORMAT
  1
GRIDFORMAT_BEGIN
 90
        0
 91
        1
 62
     0
 92
       -2
340
0
 93
        1
 40
0.045
309
GRIDFORMAT_END
 95
        8
302
GRIDFORMAT
  1
GRIDFORMAT_BEGIN
 90
        0
 91
        1
 62
     0
 92
       -2
340
0
 93
        1
 40
0.045
309
GRIDFORMAT_END
 95
       16
302
GRIDFORMAT
  1
GRIDFORMAT_BEGIN
 90
        0
 91
        1
 62
     0
 92
       -2
340
0
 93
        1
 40
0.045
309
GRIDFORMAT_END
 95
       32
302
GRIDFORMAT
  1
GRIDFORMAT_BEGIN
 90
        0
 91
        1
 62
     0
 92
       -2
340
0
 93
        1
 40
0.045
309
GRIDFORMAT_END
309
TABLEFORMAT_END
  1
CELLSTYLE_BEGIN
 90
        1
 91
        1
300
_TITLE
309
CELLSTYLE_END
300
CELLSTYLE
  1
TABLEFORMAT_BEGIN
 90
        5
170
     1
 91
        0
 92
        0
 62
   257
 93
        1
300
CONTENTFORMAT
  1
CONTENTFORMAT_BEGIN
 90
        0
 91
        0
 92
      512
 93
        0
300

 40
0.0
140
1.0
 94
        4
 62
     0
340
20C
144
0.18
309
CONTENTFORMAT_END
171
     0
 94
        6
 95
        1
302
GRIDFORMAT
  1
GRIDFORMAT_BEGIN
 90
        0
 91
        1
 62
     0
 92
       -2
340
0
 93
        1
 40
0.045
309
GRIDFORMAT_END
 95
        2
302
GRIDFORMAT
  1
GRIDFORMAT_BEGIN
 90
        0
 91
        1
 62
     0
 92
       -2
340
0
 93
        1
 40
0.045
309
GRIDFORMAT_END
 95
        4
302
GRIDFORMAT
  1
GRIDFORMAT_BEGIN
 90
        0
 91
        1
 62
     0
 92
       -2
340
0
 93
        1
 40
0.045
309
GRIDFORMAT_END
 95
        8
302
GRIDFORMAT
  1
GRIDFORMAT_BEGIN
 90
        0
 91
        1
 62
     0
 92
       -2
340
0
 93
        1
 40
0.045
309
GRIDFORMAT_END
 95
       16
302
GRIDFORMAT
  1
GRIDFORMAT_BEGIN
 90
        0
 91
        1
 62
     0
 92
       -2
340
0
 93
        1
 40
0.045
309
GRIDFORMAT_END
 95
       32
302
GRIDFORMAT
  1
GRIDFORMAT_BEGIN
 90
        0
 91
        1
 62
     0
 92
       -2
340
0
 93
        1
 40
0.045
309
GRIDFORMAT_END
309
TABLEFORMAT_END
  1
CELLSTYLE_BEGIN
 90
        2
 91
        1
300
_HEADER
309
CELLSTYLE_END
300
CELLSTYLE
  1
TABLEFORMAT_BEGIN
 90
        5
170
     1
 91
        0
 92
        0
 62
   257
 93
        1
300
CONTENTFORMAT
  1
CONTENTFORMAT_BEGIN
 90
        0
 91
        0
 92
      512
 93
        0
300

 40
0.0
140
1.0
 94
        4
 62
     0
340
20C
144
0.18
309
CONTENTFORMAT_END
171
     0
 94
        6
 95
        1
302
GRIDFORMAT
  1
GRIDFORMAT_BEGIN
 90
        0
 91
        1
 62
     0
 92
       -2
340
0
 93
        1
 40
0.045
309
GRIDFORMAT_END
 95
        2
302
GRIDFORMAT
  1
GRIDFORMAT_BEGIN
 90
        0
 91
        1
 62
     0
 92
       -2
340
0
 93
        1
 40
0.045
309
GRIDFORMAT_END
 95
        4
302
GRIDFORMAT
  1
GRIDFORMAT_BEGIN
 90
        0
 91
        1
 62
     0
 92
       -2
340
0
 93
        1
 40
0.045
309
GRIDFORMAT_END
 95
        8
302
GRIDFORMAT
  1
GRIDFORMAT_BEGIN
 90
        0
 91
        1
 62
     0
 92
       -2
340
0
 93
        1
 40
0.045
309
GRIDFORMAT_END
 95
       16
302
GRIDFORMAT
  1
GRIDFORMAT_BEGIN
 90
        0
 91
        1
 62
     0
 92
       -2
340
0
 93
        1
 40
0.045
309
GRIDFORMAT_END
 95
       32
302
GRIDFORMAT
  1
GRIDFORMAT_BEGIN
 90
        0
 91
        1
 62
     0
 92
       -2
340
0
 93
        1
 40
0.045
309
GRIDFORMAT_END
309
TABLEFORMAT_END
  1
CELLSTYLE_BEGIN
 90
        3
 91
        2
300
_DATA
309
CELLSTYLE_END
  0
CELLSTYLEMAP
  5
D05
102
{ACAD_REACTORS
330
104
102
}
330
104
100
AcDbCellStyleMap
 90
        3
300
CELLSTYLE
  1
TABLEFORMAT_BEGIN
 90
        5
170
     1
 91
        0
 92
    32768
 62
   257
 93
        1
300
CONTENTFORMAT
  1
CONTENTFORMAT_BEGIN
 90
        0
 91
        0
 92
      512
 93
        0
300

 40
0.0
140
1.0
 94
        5
 62
     0
340
11
144
0.25
309
CONTENTFORMAT_END
171
     1
301
MARGIN
  1
CELLMARGIN_BEGIN
 40
0.06
 40
0.06
 40
0.06
 40
0.06
 40
0.18
 40
0.18
309
CELLMARGIN_END
 94
        6
 95
        1
302
GRIDFORMAT
  1
GRIDFORMAT_BEGIN
 90
        0
 91
        1
 62
     0
 92
       -2
340
0
 93
        0
 40
0.045
309
GRIDFORMAT_END
 95
        2
302
GRIDFORMAT
  1
GRIDFORMAT_BEGIN
 90
        0
 91
        1
 62
     0
 92
       -2
340
0
 93
        0
 40
0.045
309
GRIDFORMAT_END
 95
        4
302
GRIDFORMAT
  1
GRIDFORMAT_BEGIN
 90
        0
 91
        1
 62
     0
 92
       -2
340
0
 93
        0
 40
0.045
309
GRIDFORMAT_END
 95
        8
302
GRIDFORMAT
  1
GRIDFORMAT_BEGIN
 90
        0
 91
        1
 62
     0
 92
       -2
340
0
 93
        0
 40
0.045
309
GRIDFORMAT_END
 95
       16
302
GRIDFORMAT
  1
GRIDFORMAT_BEGIN
 90
        0
 91
        1
 62
     0
 92
       -2
340
0
 93
        0
 40
0.045
309
GRIDFORMAT_END
 95
       32
302
GRIDFORMAT
  1
GRIDFORMAT_BEGIN
 90
        0
 91
        1
 62
     0
 92
       -2
340
0
 93
        0
 40
0.045
309
GRIDFORMAT_END
309
TABLEFORMAT_END
  1
CELLSTYLE_BEGIN
 90
        1
 91
        1
300
_TITLE
309
CELLSTYLE_END
300
CELLSTYLE
  1
TABLEFORMAT_BEGIN
 90
        5
170
     1
 91
        0
 92
        0
 62
   257
 93
        1
300
CONTENTFORMAT
  1
CONTENTFORMAT_BEGIN
 90
        0
 91
        0
 92
      512
 93
        0
300

 40
0.0
140
1.0
 94
        5
 62
     0
340
11
144
0.18
309
CONTENTFORMAT_END
171
     1
301
MARGIN
  1
CELLMARGIN_BEGIN
 40
0.06
 40
0.06
 40
0.06
 40
0.06
 40
0.18
 40
0.18
309
CELLMARGIN_END
 94
        6
 95
        1
302
GRIDFORMAT
  1
GRIDFORMAT_BEGIN
 90
        0
 91
        1
 62
     0
 92
       -2
340
0
 93
        0
 40
0.045
309
GRIDFORMAT_END
 95
        2
302
GRIDFORMAT
  1
GRIDFORMAT_BEGIN
 90
        0
 91
        1
 62
     0
 92
       -2
340
0
 93
        0
 40
0.045
309
GRIDFORMAT_END
 95
        4
302
GRIDFORMAT
  1
GRIDFORMAT_BEGIN
 90
        0
 91
        1
 62
     0
 92
       -2
340
0
 93
        0
 40
0.045
309
GRIDFORMAT_END
 95
        8
302
GRIDFORMAT
  1
GRIDFORMAT_BEGIN
 90
        0
 91
        1
 62
     0
 92
       -2
340
0
 93
        0
 40
0.045
309
GRIDFORMAT_END
 95
       16
302
GRIDFORMAT
  1
GRIDFORMAT_BEGIN
 90
        0
 91
        1
 62
     0
 92
       -2
340
0
 93
        0
 40
0.045
309
GRIDFORMAT_END
 95
       32
302
GRIDFORMAT
  1
GRIDFORMAT_BEGIN
 90
        0
 91
        1
 62
     0
 92
       -2
340
0
 93
        0
 40
0.045
309
GRIDFORMAT_END
309
TABLEFORMAT_END
  1
CELLSTYLE_BEGIN
 90
        2
 91
        1
300
_HEADER
309
CELLSTYLE_END
300
CELLSTYLE
  1
TABLEFORMAT_BEGIN
 90
        5
170
     1
 91
        0
 92
        0
 62
   257
 93
        1
300
CONTENTFORMAT
  1
CONTENTFORMAT_BEGIN
 90
        0
 91
        0
 92
      512
 93
        0
300

 40
0.0
140
1.0
 94
        2
 62
     0
340
11
144
0.18
309
CONTENTFORMAT_END
171
     1
301
MARGIN
  1
CELLMARGIN_BEGIN
 40
0.06
 40
0.06
 40
0.06
 40
0.06
 40
0.18
 40
0.18
309
CELLMARGIN_END
 94
        6
 95
        1
302
GRIDFORMAT
  1
GRIDFORMAT_BEGIN
 90
        0
 91
        1
 62
     0
 92
       -2
340
0
 93
        0
 40
0.045
309
GRIDFORMAT_END
 95
        2
302
GRIDFORMAT
  1
GRIDFORMAT_BEGIN
 90
        0
 91
        1
 62
     0
 92
       -2
340
0
 93
        0
 40
0.045
309
GRIDFORMAT_END
 95
        4
302
GRIDFORMAT
  1
GRIDFORMAT_BEGIN
 90
        0
 91
        1
 62
     0
 92
       -2
340
0
 93
        0
 40
0.045
309
GRIDFORMAT_END
 95
        8
302
GRIDFORMAT
  1
GRIDFORMAT_BEGIN
 90
        0
 91
        1
 62
     0
 92
       -2
340
0
 93
        0
 40
0.045
309
GRIDFORMAT_END
 95
       16
302
GRIDFORMAT
  1
GRIDFORMAT_BEGIN
 90
        0
 91
        1
 62
     0
 92
       -2
340
0
 93
        0
 40
0.045
309
GRIDFORMAT_END
 95
       32
302
GRIDFORMAT
  1
GRIDFORMAT_BEGIN
 90
        0
 91
        1
 62
     0
 92
       -2
340
0
 93
        0
 40
0.045
309
GRIDFORMAT_END
309
TABLEFORMAT_END
  1
CELLSTYLE_BEGIN
 90
        3
 91
        2
300
_DATA
309
CELLSTYLE_END
  0
DMBASEELEMENT
  5
20E
102
{ACAD_XDICTIONARY
360
212
102
}
102
{ACAD_REACTORS
330
20B
102
}
330
20B
100
AcMapDMBaseElement
 70
     1
  1
Kartenbasis
 70
     1
330
20B
100
AcMapDMBaseElement
 70
     2
  1

 70
     2
  1

 70
     1
 40
1.797693134862314E+99
 70
        1
 70
     1
 70
     1
 70
     1
360
211
100
AcMapDMBaseElement
 70
     1
  0
DMDEFAULTSTYLE
  5
20F
102
{ACAD_REACTORS
330
20B
102
}
330
20B
100
AcMapDMDefaultStyle
 70
     1
 90
        1
  1
Vorgabe
100
AcMapDMDefaultStyle
 70
     1
280
   100
 90
        0
1001
AcMapDMDisplayStyleRegapp
1070
     2
1071
        1
1000
Vorgabe
1000

  0
DICTIONARY
  5
212
330
20E
100
AcDbDictionary
280
     1
281
     1
  3
AcMapDMSurrogateStyleSets
360
213
  0
DMSTYLEREFERENCE
  5
211
330
20E
100
AcMapDMStyleReference
 70
     1
 70
     0
340
20F
330
20B
  0
DMSURROGATESTYLESETS
  5
213
102
{ACAD_REACTORS
330
212
102
}
330
212
100
AcMapDMSurrogateStyleSets
 70
     1
  1
Kartenbasis
 70
     1
 40
1.797693134862314E+99
 70
        1
 70
     1
 70
     1
 70
     1
330
211
 70
     0
  0
ENDSEC
  0
SECTION
  2
ACDSDATA
 70
     2
 71
     8
  0
ACDSSCHEMA
 90
        0
  1
AcDb_Thumbnail_Schema
  2
AcDbDs::ID
280
    10
 91
        8
  2
Thumbnail_Data
280
    15
 91
        0
101
ACDSRECORD
 95
        0
 90
        1
  2
AcDbDs::TreatedAsObjectData
280
     1
291
     1
101
ACDSRECORD
 95
        0
 90
        2
  2
AcDbDs::Legacy
280
     1
291
     1
101
ACDSRECORD
  1
AcDbDs::ID
 90
        3
  2
AcDs:Indexable
280
     1
291
     1
101
ACDSRECORD
  1
AcDbDs::ID
 90
        4
  2
AcDbDs::HandleAttribute
280
     7
282
     1
  0
ACDSSCHEMA
 90
        1
  1
AcDbDs::TreatedAsObjectDataSchema
  2
AcDbDs::TreatedAsObjectData
280
     1
 91
        0
  0
ACDSSCHEMA
 90
        2
  1
AcDbDs::LegacySchema
  2
AcDbDs::Legacy
280
     1
 91
        0
  0
ACDSSCHEMA
 90
        3
  1
AcDbDs::IndexedPropertySchema
  2
AcDs:Indexable
280
     1
 91
        0
  0
ACDSSCHEMA
 90
        4
  1
AcDbDs::HandleAttributeSchema
  2
AcDbDs::HandleAttribute
280
     7
 91
        1
284
     1
  0
ACDSRECORD
 90
        0
  2
AcDbDs::ID
280
    10
320
22
  2
Thumbnail_Data
280
    15
 94
      896
310
89504E470D0A1A0A0000000D4948445200000100000000690803000000E2200D7200000300504C5445D7D7D7FFFFFFD7D7D70000000000000000000000000000000000000000000000000000330000660000990000CC0000FF0033000033330033660033990033CC0033FF0066000066330066660066990066CC0066FF0099
310
000099330099660099990099CC0099FF00CC0000CC3300CC6600CC9900CCCC00CCFF00FF0000FF3300FF6600FF9900FFCC00FFFF3300003300333300663300993300CC3300FF3333003333333333663333993333CC3333FF3366003366333366663366993366CC3366FF3399003399333399663399993399CC3399FF33CC00
310
33CC3333CC6633CC9933CCCC33CCFF33FF0033FF3333FF6633FF9933FFCC33FFFF6600006600336600666600996600CC6600FF6633006633336633666633996633CC6633FF6666006666336666666666996666CC6666FF6699006699336699666699996699CC6699FF66CC0066CC3366CC6666CC9966CCCC66CCFF66FF0066
310
FF3366FF6666FF9966FFCC66FFFF9900009900339900669900999900CC9900FF9933009933339933669933999933CC9933FF9966009966339966669966999966CC9966FF9999009999339999669999999999CC9999FF99CC0099CC3399CC6699CC9999CCCC99CCFF99FF0099FF3399FF6699FF9999FFCC99FFFFCC0000CC00
310
33CC0066CC0099CC00CCCC00FFCC3300CC3333CC3366CC3399CC33CCCC33FFCC6600CC6633CC6666CC6699CC66CCCC66FFCC9900CC9933CC9966CC9999CC99CCCC99FFCCCC00CCCC33CCCC66CCCC99CCCCCCCCCCFFCCFF00CCFF33CCFF66CCFF99CCFFCCCCFFFFFF0000FF0033FF0066FF0099FF00CCFF00FFFF3300FF3333
310
FF3366FF3399FF33CCFF33FFFF6600FF6633FF6666FF6699FF66CCFF66FFFF9900FF9933FF9966FF9999FF99CCFF99FFFFCC00FFCC33FFCC66FFCC99FFCCCCFFCCFFFFFF00FFFF33FFFF66FFFF99FFFFCCFFFFFF0000000D0D0D1A1A1A2828283535354343435050505D5D5D6B6B6B787878868686939393A1A1A1AEAEAEBB
310
BBBBC9C9C9D6D6D6E4E4E4F1F1F1FFFFFF0000000000000000000000000000000000000000000000000000000000004CC95296000000314944415478DAEDC13101000000C2A0F54F6D0D0FA000000000000000000000000000000000000000000000000000004E0D696900013EF8F3470000000049454E44AE426082000049
310
454E44AE426082
  0
ENDSEC
  0
EOF
