  0
SECTION
  2
HEADER
  9
$ACADVER
  1
AC1027
  9
$ACADMAINTVER
 70
   125
  9
$DWGCODEPAGE
  3
ANSI_1252
  9
$LASTSAVEDBY
  1
P04857991
  9
$REQUIREDVERSIONS
160
                 0
  9
$INSBASE
 10
0.0
 20
0.0
 30
0.0
  9
$EXTMIN
 10
109400.8650000002
 20
349781.6976999994
 30
0.0
  9
$EXTMAX
 10
110558.0946000004
 20
350449.2550000009
 30
0.0
  9
$LIMMIN
 10
0.0
 20
0.0
  9
$LIMMAX
 10
12.0
 20
9.0
  9
$ORTHOMODE
 70
     0
  9
$REGENMODE
 70
     1
  9
$FILLMODE
 70
     1
  9
$QTEXTMODE
 70
     0
  9
$MIRRTEXT
 70
     0
  9
$LTSCALE
 40
1.0
  9
$ATTMODE
 70
     1
  9
$TEXTSIZE
 40
0.2
  9
$TRACEWID
 40
0.05
  9
$TEXTSTYLE
  7
Legend
  9
$CLAYER
  8
0
  9
$CELTYPE
  6
ByLayer
  9
$CECOLOR
 62
   256
  9
$CELTSCALE
 40
1.0
  9
$DISPSILH
 70
     0
  9
$DIMSCALE
 40
1.0
  9
$DIMASZ
 40
0.18
  9
$DIMEXO
 40
0.0625
  9
$DIMDLI
 40
0.38
  9
$DIMRND
 40
0.0
  9
$DIMDLE
 40
0.0
  9
$DIMEXE
 40
0.18
  9
$DIMTP
 40
0.0
  9
$DIMTM
 40
0.0
  9
$DIMTXT
 40
0.18
  9
$DIMCEN
 40
0.09
  9
$DIMTSZ
 40
0.0
  9
$DIMTOL
 70
     0
  9
$DIMLIM
 70
     0
  9
$DIMTIH
 70
     1
  9
$DIMTOH
 70
     1
  9
$DIMSE1
 70
     0
  9
$DIMSE2
 70
     0
  9
$DIMTAD
 70
     0
  9
$DIMZIN
 70
     0
  9
$DIMBLK
  1

  9
$DIMASO
 70
     1
  9
$DIMSHO
 70
     1
  9
$DIMPOST
  1

  9
$DIMAPOST
  1

  9
$DIMALT
 70
     0
  9
$DIMALTD
 70
     2
  9
$DIMALTF
 40
25.4
  9
$DIMLFAC
 40
1.0
  9
$DIMTOFL
 70
     0
  9
$DIMTVP
 40
0.0
  9
$DIMTIX
 70
     0
  9
$DIMSOXD
 70
     0
  9
$DIMSAH
 70
     0
  9
$DIMBLK1
  1

  9
$DIMBLK2
  1

  9
$DIMSTYLE
  2
Standard
  9
$DIMCLRD
 70
     0
  9
$DIMCLRE
 70
     0
  9
$DIMCLRT
 70
     0
  9
$DIMTFAC
 40
1.0
  9
$DIMGAP
 40
0.09
  9
$DIMJUST
 70
     0
  9
$DIMSD1
 70
     0
  9
$DIMSD2
 70
     0
  9
$DIMTOLJ
 70
     1
  9
$DIMTZIN
 70
     0
  9
$DIMALTZ
 70
     0
  9
$DIMALTTZ
 70
     0
  9
$DIMUPT
 70
     0
  9
$DIMDEC
 70
     4
  9
$DIMTDEC
 70
     4
  9
$DIMALTU
 70
     2
  9
$DIMALTTD
 70
     2
  9
$DIMTXSTY
  7
Standard
  9
$DIMAUNIT
 70
     0
  9
$DIMADEC
 70
     0
  9
$DIMALTRND
 40
0.0
  9
$DIMAZIN
 70
     0
  9
$DIMDSEP
 70
    46
  9
$DIMATFIT
 70
     3
  9
$DIMFRAC
 70
     0
  9
$DIMLDRBLK
  1

  9
$DIMLUNIT
 70
     2
  9
$DIMLWD
 70
    -2
  9
$DIMLWE
 70
    -2
  9
$DIMTMOVE
 70
     0
  9
$DIMFXL
 40
1.0
  9
$DIMFXLON
 70
     0
  9
$DIMJOGANG
 40
0.7853981633974483
  9
$DIMTFILL
 70
     0
  9
$DIMTFILLCLR
 70
     0
  9
$DIMARCSYM
 70
     0
  9
$DIMLTYPE
  6

  9
$DIMLTEX1
  6

  9
$DIMLTEX2
  6

  9
$DIMTXTDIRECTION
 70
     0
  9
$LUNITS
 70
     2
  9
$LUPREC
 70
     4
  9
$SKETCHINC
 40
0.1
  9
$FILLETRAD
 40
0.0
  9
$AUNITS
 70
     0
  9
$AUPREC
 70
     0
  9
$MENU
  1
.
  9
$ELEVATION
 40
0.0
  9
$PELEVATION
 40
0.0
  9
$THICKNESS
 40
0.0
  9
$LIMCHECK
 70
     0
  9
$CHAMFERA
 40
0.0
  9
$CHAMFERB
 40
0.0
  9
$CHAMFERC
 40
0.0
  9
$CHAMFERD
 40
0.0
  9
$SKPOLY
 70
     0
  9
$TDCREATE
 40
2459607.382928241
  9
$TDUCREATE
 40
2459607.341261574
  9
$TDUPDATE
 40
2459607.399305556
  9
$TDUUPDATE
 40
2459607.357638889
  9
$TDINDWG
 40
0.0163773148
  9
$TDUSRTIMER
 40
0.0163773148
  9
$USRTIMER
 70
     1
  9
$ANGBASE
 50
0.0
  9
$ANGDIR
 70
     0
  9
$PDMODE
 70
     0
  9
$PDSIZE
 40
0.0
  9
$PLINEWID
 40
0.0
  9
$SPLFRAME
 70
     0
  9
$SPLINETYPE
 70
     6
  9
$SPLINESEGS
 70
     8
  9
$HANDSEED
  5
2CD
  9
$SURFTAB1
 70
     6
  9
$SURFTAB2
 70
     6
  9
$SURFTYPE
 70
     6
  9
$SURFU
 70
     6
  9
$SURFV
 70
     6
  9
$UCSBASE
  2

  9
$UCSNAME
  2

  9
$UCSORG
 10
0.0
 20
0.0
 30
0.0
  9
$UCSXDIR
 10
1.0
 20
0.0
 30
0.0
  9
$UCSYDIR
 10
0.0
 20
1.0
 30
0.0
  9
$UCSORTHOREF
  2

  9
$UCSORTHOVIEW
 70
     0
  9
$UCSORGTOP
 10
0.0
 20
0.0
 30
0.0
  9
$UCSORGBOTTOM
 10
0.0
 20
0.0
 30
0.0
  9
$UCSORGLEFT
 10
0.0
 20
0.0
 30
0.0
  9
$UCSORGRIGHT
 10
0.0
 20
0.0
 30
0.0
  9
$UCSORGFRONT
 10
0.0
 20
0.0
 30
0.0
  9
$UCSORGBACK
 10
0.0
 20
0.0
 30
0.0
  9
$PUCSBASE
  2

  9
$PUCSNAME
  2

  9
$PUCSORG
 10
0.0
 20
0.0
 30
0.0
  9
$PUCSXDIR
 10
1.0
 20
0.0
 30
0.0
  9
$PUCSYDIR
 10
0.0
 20
1.0
 30
0.0
  9
$PUCSORTHOREF
  2

  9
$PUCSORTHOVIEW
 70
     0
  9
$PUCSORGTOP
 10
0.0
 20
0.0
 30
0.0
  9
$PUCSORGBOTTOM
 10
0.0
 20
0.0
 30
0.0
  9
$PUCSORGLEFT
 10
0.0
 20
0.0
 30
0.0
  9
$PUCSORGRIGHT
 10
0.0
 20
0.0
 30
0.0
  9
$PUCSORGFRONT
 10
0.0
 20
0.0
 30
0.0
  9
$PUCSORGBACK
 10
0.0
 20
0.0
 30
0.0
  9
$USERI1
 70
     0
  9
$USERI2
 70
     0
  9
$USERI3
 70
     0
  9
$USERI4
 70
     0
  9
$USERI5
 70
     0
  9
$USERR1
 40
0.0
  9
$USERR2
 40
0.0
  9
$USERR3
 40
0.0
  9
$USERR4
 40
0.0
  9
$USERR5
 40
0.0
  9
$WORLDVIEW
 70
     1
  9
$SHADEDGE
 70
     3
  9
$SHADEDIF
 70
    70
  9
$TILEMODE
 70
     1
  9
$MAXACTVP
 70
    64
  9
$PINSBASE
 10
0.0
 20
0.0
 30
0.0
  9
$PLIMCHECK
 70
     0
  9
$PEXTMIN
 10
0.0
 20
0.0
 30
0.0
  9
$PEXTMAX
 10
0.0
 20
0.0
 30
0.0
  9
$PLIMMIN
 10
0.0
 20
0.0
  9
$PLIMMAX
 10
12.0
 20
9.0
  9
$UNITMODE
 70
     0
  9
$VISRETAIN
 70
     1
  9
$PLINEGEN
 70
     0
  9
$PSLTSCALE
 70
     1
  9
$TREEDEPTH
 70
  3020
  9
$CMLSTYLE
  2
Standard
  9
$CMLJUST
 70
     0
  9
$CMLSCALE
 40
1.0
  9
$PROXYGRAPHICS
 70
     1
  9
$MEASUREMENT
 70
     1
  9
$CELWEIGHT
370
    -1
  9
$ENDCAPS
280
     0
  9
$JOINSTYLE
280
     0
  9
$LWDISPLAY
290
     0
  9
$INSUNITS
 70
     1
  9
$HYPERLINKBASE
  1

  9
$STYLESHEET
  1

  9
$XEDIT
290
     1
  9
$CEPSNTYPE
380
     0
  9
$PSTYLEMODE
290
     1
  9
$FINGERPRINTGUID
  2
{516367C5-E672-4C4E-97D6-22615593775E}
  9
$VERSIONGUID
  2
{63DC181E-54DE-DC44-A6C9-0C61C2039332}
  9
$EXTNAMES
290
     1
  9
$PSVPSCALE
 40
0.0
  9
$OLESTARTUP
290
     0
  9
$SORTENTS
280
   127
  9
$INDEXCTL
280
     0
  9
$HIDETEXT
280
     1
  9
$XCLIPFRAME
280
     2
  9
$HALOGAP
280
     0
  9
$OBSCOLOR
 70
   257
  9
$OBSLTYPE
280
     0
  9
$INTERSECTIONDISPLAY
280
     0
  9
$INTERSECTIONCOLOR
 70
   257
  9
$DIMASSOC
280
     2
  9
$PROJECTNAME
  1

  9
$CAMERADISPLAY
290
     0
  9
$LENSLENGTH
 40
50.0
  9
$CAMERAHEIGHT
 40
0.0
  9
$STEPSPERSEC
 40
2.0
  9
$STEPSIZE
 40
100.0
  9
$3DDWFPREC
 40
2.0
  9
$PSOLWIDTH
 40
0.25
  9
$PSOLHEIGHT
 40
4.0
  9
$LOFTANG1
 40
1.570796326794896
  9
$LOFTANG2
 40
1.570796326794896
  9
$LOFTMAG1
 40
0.0
  9
$LOFTMAG2
 40
0.0
  9
$LOFTPARAM
 70
     7
  9
$LOFTNORMALS
280
     1
  9
$LATITUDE
 40
37.795
  9
$LONGITUDE
 40
-122.394
  9
$NORTHDIRECTION
 40
0.0
  9
$TIMEZONE
 70
 -8000
  9
$LIGHTGLYPHDISPLAY
280
     1
  9
$TILEMODELIGHTSYNCH
280
     1
  9
$CMATERIAL
347
96
  9
$SOLIDHIST
280
     0
  9
$SHOWHIST
280
     1
  9
$DWFFRAME
280
     2
  9
$DGNFRAME
280
     0
  9
$REALWORLDSCALE
290
     1
  9
$INTERFERECOLOR
 62
     1
  9
$INTERFEREOBJVS
345
A3
  9
$INTERFEREVPVS
346
A0
  9
$CSHADOW
280
     0
  9
$SHADOWPLANELOCATION
 40
0.0
  0
ENDSEC
  0
SECTION
  2
CLASSES
  0
CLASS
  1
ACDBDICTIONARYWDFLT
  2
AcDbDictionaryWithDefault
  3
ObjectDBX Classes
 90
        0
 91
        1
280
     0
281
     0
  0
CLASS
  1
DICTIONARYVAR
  2
AcDbDictionaryVar
  3
ObjectDBX Classes
 90
        0
 91
        9
280
     0
281
     0
  0
CLASS
  1
TABLESTYLE
  2
AcDbTableStyle
  3
ObjectDBX Classes
 90
     4095
 91
        2
280
     0
281
     0
  0
CLASS
  1
MATERIAL
  2
AcDbMaterial
  3
ObjectDBX Classes
 90
     1153
 91
        3
280
     0
281
     0
  0
CLASS
  1
VISUALSTYLE
  2
AcDbVisualStyle
  3
ObjectDBX Classes
 90
     4095
 91
       24
280
     0
281
     0
  0
CLASS
  1
SCALE
  2
AcDbScale
  3
ObjectDBX Classes
 90
     1153
 91
       33
280
     0
281
     0
  0
CLASS
  1
MLEADERSTYLE
  2
AcDbMLeaderStyle
  3
ACDB_MLEADERSTYLE_CLASS
 90
     4095
 91
        2
280
     0
281
     0
  0
CLASS
  1
CELLSTYLEMAP
  2
AcDbCellStyleMap
  3
ObjectDBX Classes
 90
     1152
 91
        2
280
     0
281
     0
  0
CLASS
  1
EXACXREFPANELOBJECT
  2
ExAcXREFPanelObject
  3
EXAC_ESW
 90
     1025
 91
        0
280
     0
281
     0
  0
CLASS
  1
NPOCOLLECTION
  2
AcDbImpNonPersistentObjectsCollection
  3
ObjectDBX Classes
 90
     1153
 91
        0
280
     0
281
     0
  0
CLASS
  1
LAYER_INDEX
  2
AcDbLayerIndex
  3
ObjectDBX Classes
 90
        0
 91
        0
280
     0
281
     0
  0
CLASS
  1
SPATIAL_INDEX
  2
AcDbSpatialIndex
  3
ObjectDBX Classes
 90
        0
 91
        0
280
     0
281
     0
  0
CLASS
  1
IDBUFFER
  2
AcDbIdBuffer
  3
ObjectDBX Classes
 90
        0
 91
        0
280
     0
281
     0
  0
CLASS
  1
ACDBSECTIONVIEWSTYLE
  2
AcDbSectionViewStyle
  3
ObjectDBX Classes
 90
     1025
 91
        2
280
     0
281
     0
  0
CLASS
  1
ACDBDETAILVIEWSTYLE
  2
AcDbDetailViewStyle
  3
ObjectDBX Classes
 90
     1025
 91
        2
280
     0
281
     0
  0
CLASS
  1
DMMAPMANAGER
  2
AcMapDMMapManager
  3
AcMapDisplayManagement
 90
     1024
 91
        1
280
     0
281
     0
  0
CLASS
  1
DMSTYLELIBRARY
  2
AcMapDMStyleLibrary
  3
AcMapDisplayManagement
 90
     1024
 91
        1
280
     0
281
     0
  0
CLASS
  1
DMSTYLECATEGORY
  2
AcMapDMStyleCategory
  3
AcMapDisplayManagement
 90
     1024
 91
        1
280
     0
281
     0
  0
CLASS
  1
DATATABLE
  2
AcDbDataTable
  3
ObjectDBX Classes
 90
        0
 91
        1
280
     0
281
     0
  0
CLASS
  1
MAPRESOURCEMANAGEROBJECT
  2
AcMapResourceManager
  3
AcMapSharedComponents
 90
     1024
 91
        1
280
     0
281
     0
  0
CLASS
  1
MAPGWSUNDOOBJECT
  2
AcMapGWSUndoRecorder
  3
AcMapFeatureSourceManager
 90
     1025
 91
        1
280
     0
281
     0
  0
CLASS
  1
DMMAP
  2
AcMapDMMap
  3
AcMapDisplayManagement
 90
     1024
 91
        1
280
     0
281
     0
  0
CLASS
  1
DMBASEELEMENT
  2
AcMapDMBaseElement
  3
AcMapDisplayManagement
 90
     1024
 91
        1
280
     0
281
     0
  0
CLASS
  1
DMDEFAULTSTYLE
  2
AcMapDMDefaultStyle
  3
AcMapDisplayManagement
 90
     1024
 91
        1
280
     0
281
     0
  0
CLASS
  1
DMSTYLEREFERENCE
  2
AcMapDMStyleReference
  3
AcMapDisplayManagement
 90
     1024
 91
        1
280
     0
281
     0
  0
CLASS
  1
DMSURROGATESTYLESETS
  2
AcMapDMSurrogateStyleSets
  3
AcMapDisplayManagement
 90
     1153
 91
        1
280
     0
281
     0
  0
CLASS
  1
SORTENTSTABLE
  2
AcDbSortentsTable
  3
ObjectDBX Classes
 90
        0
 91
        1
280
     0
281
     0
  0
CLASS
  1
DMSTYLIZEDENTITIESTABLE
  2
AcMapDMStylizedEntitiesTable
  3
AcMapDisplayManagement
 90
     1024
 91
        1
280
     0
281
     0
  0
CLASS
  1
SUN
  2
AcDbSun
  3
SCENEOE
 90
     1153
 91
        1
280
     0
281
     0
  0
ENDSEC
  0
SECTION
  2
TABLES
  0
TABLE
  2
VPORT
  5
8
330
0
100
AcDbSymbolTable
 70
     1
1001
ACAD
1000
DbSaveVer
1071
      122
  0
VPORT
  5
94
330
8
100
AcDbSymbolTableRecord
100
AcDbViewportTableRecord
  2
*Active
 70
     0
 10
0.0
 20
0.0
 11
1.0
 21
1.0
 12
109979.4798000003
 22
350115.4763500001
 13
0.0
 23
0.0
 14
0.5
 24
0.5
 15
0.5
 25
0.5
 16
0.0
 26
0.0
 36
1.0
 17
0.0
 27
0.0
 37
0.0
 40
673.3038477775408
 41
1.778735632183907
 42
50.0
 43
0.0
 44
0.0
 50
0.0
 51
0.0
 71
     0
 72
  1000
 73
     1
 74
     3
 75
     0
 76
     0
 77
     0
 78
     0
281
     0
 65
     1
110
0.0
120
0.0
130
0.0
111
1.0
121
0.0
131
0.0
112
0.0
122
1.0
132
0.0
 79
     0
146
0.0
348
9F
 60
     3
 61
     5
292
     1
282
     1
141
0.0
142
0.0
 63
   250
421
  3355443
361
217
1001
ACAD_NAV_VCDISPLAY
1070
     3
  0
ENDTAB
  0
TABLE
  2
LTYPE
  5
5
330
0
100
AcDbSymbolTable
 70
     1
  0
LTYPE
  5
14
330
5
100
AcDbSymbolTableRecord
100
AcDbLinetypeTableRecord
  2
ByBlock
 70
     0
  3

 72
    65
 73
     0
 40
0.0
  0
LTYPE
  5
15
330
5
100
AcDbSymbolTableRecord
100
AcDbLinetypeTableRecord
  2
ByLayer
 70
     0
  3

 72
    65
 73
     0
 40
0.0
  0
LTYPE
  5
16
330
5
100
AcDbSymbolTableRecord
100
AcDbLinetypeTableRecord
  2
Continuous
 70
     0
  3
Solid line
 72
    65
 73
     0
 40
0.0
  0
ENDTAB
  0
TABLE
  2
LAYER
  5
2
102
{ACAD_XDICTIONARY
360
18E
102
}
330
0
100
AcDbSymbolTable
 70
     3
  0
LAYER
  5
10
102
{ACAD_XDICTIONARY
360
E6
102
}
330
2
100
AcDbSymbolTableRecord
100
AcDbLayerTableRecord
  2
0
 70
     0
 62
     7
  6
Continuous
370
    -3
390
F
347
98
348
0
  0
LAYER
  5
267
330
2
100
AcDbSymbolTableRecord
100
AcDbLayerTableRecord
  2
P_SV_SB_ACHS_0
 70
     0
 62
     2
  6
Continuous
370
    -3
390
F
347
98
348
0
  0
LAYER
  5
26C
330
2
100
AcDbSymbolTableRecord
100
AcDbLayerTableRecord
  2
P_SV_SB_FBRD_0
 70
     0
 62
     1
  6
Continuous
370
    -3
390
F
347
98
348
0
  0
ENDTAB
  0
TABLE
  2
STYLE
  5
3
330
0
100
AcDbSymbolTable
 70
     3
  0
STYLE
  5
11
330
3
100
AcDbSymbolTableRecord
100
AcDbTextStyleTableRecord
  2
Standard
 70
     0
 40
0.0
 41
1.0
 50
0.0
 71
     0
 42
0.2
  3
arial.ttf
  4

1001
ACAD
1000
Arial
1071
       34
  0
STYLE
  5
DC
330
3
100
AcDbSymbolTableRecord
100
AcDbTextStyleTableRecord
  2
Beschriftung
 70
     0
 40
0.0
 41
1.0
 50
0.0
 71
     0
 42
0.2
  3
arial.ttf
  4

1001
AcadAnnotative
1000
AnnotativeData
1002
{
1070
     1
1070
     1
1002
}
1001
ACAD
1000
Arial
1071
       34
  0
STYLE
  5
20C
330
3
100
AcDbSymbolTableRecord
100
AcDbTextStyleTableRecord
  2
Legend
 70
     0
 40
0.0
 41
1.0
 50
0.0
 71
     0
 42
0.2
  3
calibri.ttf
  4

1001
ACAD
1000
Calibri
1071
       80
  0
ENDTAB
  0
TABLE
  2
VIEW
  5
6
330
0
100
AcDbSymbolTable
 70
     0
  0
ENDTAB
  0
TABLE
  2
UCS
  5
7
330
0
100
AcDbSymbolTable
 70
     0
  0
ENDTAB
  0
TABLE
  2
APPID
  5
9
330
0
100
AcDbSymbolTable
 70
    13
  0
APPID
  5
12
330
9
100
AcDbSymbolTableRecord
100
AcDbRegAppTableRecord
  2
ACAD
 70
     0
  0
APPID
  5
DD
330
9
100
AcDbSymbolTableRecord
100
AcDbRegAppTableRecord
  2
AcadAnnoPO
 70
     0
  0
APPID
  5
DE
330
9
100
AcDbSymbolTableRecord
100
AcDbRegAppTableRecord
  2
AcadAnnotative
 70
     0
  0
APPID
  5
DF
330
9
100
AcDbSymbolTableRecord
100
AcDbRegAppTableRecord
  2
ACAD_DSTYLE_DIMJAG
 70
     0
  0
APPID
  5
E0
330
9
100
AcDbSymbolTableRecord
100
AcDbRegAppTableRecord
  2
ACAD_DSTYLE_DIMTALN
 70
     0
  0
APPID
  5
107
330
9
100
AcDbSymbolTableRecord
100
AcDbRegAppTableRecord
  2
ACAD_MLEADERVER
 70
     0
  0
APPID
  5
1A6
330
9
100
AcDbSymbolTableRecord
100
AcDbRegAppTableRecord
  2
ACAD_NAV_VCDISPLAY
 70
     0
  0
APPID
  5
210
330
9
100
AcDbSymbolTableRecord
100
AcDbRegAppTableRecord
  2
AcMapDMDisplayStyleRegapp
 70
     0
  0
APPID
  5
21A
330
9
100
AcDbSymbolTableRecord
100
AcDbRegAppTableRecord
  2
ADE
 70
     0
  0
APPID
  5
21F
330
9
100
AcDbSymbolTableRecord
100
AcDbRegAppTableRecord
  2
DCO15
 70
     0
  0
APPID
  5
221
330
9
100
AcDbSymbolTableRecord
100
AcDbRegAppTableRecord
  2
MapGWS
 70
     0
  0
APPID
  5
265
330
9
100
AcDbSymbolTableRecord
100
AcDbRegAppTableRecord
  2
AcMap_E615D161-C9D7-11d3-839F-0060B0FB6B57
 70
     0
  0
APPID
  5
2BC
330
9
100
AcDbSymbolTableRecord
100
AcDbRegAppTableRecord
  2
ADE_PROJECTION
 70
     0
  0
ENDTAB
  0
TABLE
  2
DIMSTYLE
  5
A
330
0
100
AcDbSymbolTable
 70
     2
100
AcDbDimStyleTable
 71
     2
340
27
340
E1
  0
DIMSTYLE
105
27
330
A
100
AcDbSymbolTableRecord
100
AcDbDimStyleTableRecord
  2
Standard
 70
     0
340
11
  0
DIMSTYLE
105
E1
330
A
100
AcDbSymbolTableRecord
100
AcDbDimStyleTableRecord
  2
Beschriftung
 70
     0
 40
0.0
340
11
1001
AcadAnnotative
1000
AnnotativeData
1002
{
1070
     1
1070
     1
1002
}
1001
ACAD_DSTYLE_DIMJAG
1070
   388
1040
1.5
1001
ACAD_DSTYLE_DIMTALN
1070
   392
1070
     0
  0
ENDTAB
  0
TABLE
  2
BLOCK_RECORD
  5
1
330
0
100
AcDbSymbolTable
 70
     1
  0
BLOCK_RECORD
  5
1F
102
{ACAD_XDICTIONARY
360
15D
102
}
330
1
100
AcDbSymbolTableRecord
100
AcDbBlockTableRecord
  2
*Model_Space
340
22
 70
     0
280
     1
281
     0
  0
BLOCK_RECORD
  5
58
330
1
100
AcDbSymbolTableRecord
100
AcDbBlockTableRecord
  2
*Paper_Space
340
59
 70
     0
280
     1
281
     0
  0
BLOCK_RECORD
  5
5D
330
1
100
AcDbSymbolTableRecord
100
AcDbBlockTableRecord
  2
*Paper_Space0
340
5E
 70
     0
280
     1
281
     0
  0
ENDTAB
  0
ENDSEC
  0
SECTION
  2
BLOCKS
  0
BLOCK
  5
20
330
1F
100
AcDbEntity
  8
0
100
AcDbBlockBegin
  2
*Model_Space
 70
     0
 10
0.0
 20
0.0
 30
0.0
  3
*Model_Space
  1

  0
ENDBLK
  5
21
330
1F
100
AcDbEntity
  8
0
100
AcDbBlockEnd
  0
BLOCK
  5
5A
330
58
100
AcDbEntity
 67
     1
  8
0
100
AcDbBlockBegin
  2
*Paper_Space
 70
     0
 10
0.0
 20
0.0
 30
0.0
  3
*Paper_Space
  1

  0
ENDBLK
  5
5B
330
58
100
AcDbEntity
 67
     1
  8
0
100
AcDbBlockEnd
  0
BLOCK
  5
5F
330
5D
100
AcDbEntity
 67
     1
  8
0
100
AcDbBlockBegin
  2
*Paper_Space0
 70
     0
 10
0.0
 20
0.0
 30
0.0
  3
*Paper_Space0
  1

  0
ENDBLK
  5
60
330
5D
100
AcDbEntity
 67
     1
  8
0
100
AcDbBlockEnd
  0
ENDSEC
  0
SECTION
  2
ENTITIES
  0
LWPOLYLINE
  5
268
330
1F
100
AcDbEntity
  8
P_SV_SB_ACHS_0
100
AcDbPolyline
 90
       25
 70
     0
 43
0.0
 10
110057.9334000004
 20
350258.159
 10
110055.8003000002
 20
350257.7149999999
 10
110055.4708000002
 20
350257.6521000005
 10
110055.1393999997
 20
350257.6004000008
 10
110054.8064000001
 20
350257.5598000009
 10
110054.4721999997
 20
350257.5304000006
 10
110054.1371999997
 20
350257.5121999998
 10
110053.8019000003
 20
350257.5052000005
 10
110053.4664000003
 20
350257.5095000007
 10
110053.1312999995
 20
350257.5251000003
 10
110052.7969000004
 20
350257.5517999996
 10
110052.4636000003
 20
350257.5898000002
 10
110052.1317999996
 20
350257.6390000005
 10
110051.8017999995
 20
350257.6992000007
 10
110051.4740000004
 20
350257.7705000006
 10
110051.1486999998
 20
350257.8527000006
 10
110050.8265000004
 20
350257.9458000008
 10
110050.5075000003
 20
350258.0496999994
 10
110050.1922000004
 20
350258.1642000005
 10
110049.8809000002
 20
350258.2892000005
 10
110049.5739000002
 20
350258.4245999996
 10
110049.2717000004
 20
350258.5702
 10
110048.9744999995
 20
350258.7258000001
 10
110048.6827999996
 20
350258.8913000002
 10
110047.3865
 20
350259.6382999998
1001
AcMap_E615D161-C9D7-11d3-839F-0060B0FB6B57
1071
        1
1071
        1
  0
LWPOLYLINE
  5
269
330
1F
100
AcDbEntity
  8
P_SV_SB_ACHS_0
100
AcDbPolyline
 90
       68
 70
     0
 43
0.0
 10
110470.5851999996
 20
350428.9722000006
 10
110470.1574999997
 20
350432.8405000009
 10
110470.1442
 20
350433.0122999996
 10
110470.1249000002
 20
350433.1835999992
 10
110470.0997999999
 20
350433.3542
 10
110470.0687999995
 20
350433.5237000007
 10
110470.0319999996
 20
350433.6920999997
 10
110469.9894000003
 20
350433.8592000008
 10
110469.9411000004
 20
350434.0245999992
 10
110469.8870999999
 20
350434.1883000005
 10
110469.8274999996
 20
350434.3499999997
 10
110469.7622999996
 20
350434.5096000005
 10
110469.6917000003
 20
350434.6668999996
 10
110469.6157
 20
350434.8215999995
 10
110469.5344000002
 20
350434.9736000002
 10
110469.4479999998
 20
350435.1227000003
 10
110469.3563999999
 20
350435.2686999999
 10
110469.2598999999
 20
350435.4114999995
 10
110469.1584999999
 20
350435.5508999992
 10
110469.0522999996
 20
350435.6867999994
 10
110468.9415999995
 20
350435.8188000005
 10
110468.8262999998
 20
350435.9470000006
 10
110468.7067
 20
350436.0711000003
 10
110468.5828999998
 20
350436.1910999995
 10
110468.4550000001
 20
350436.3066000007
 10
110468.3233000003
 20
350436.4177999999
 10
110468.1876999996
 20
350436.5242999997
 10
110468.0486000003
 20
350436.6260000002
 10
110467.9061000002
 20
350436.7229999993
 10
110467.7603000002
 20
350436.8148999997
 10
110467.6113999998
 20
350436.9017999992
 10
110467.4595999997
 20
350436.9835000002
 10
110467.3051000005
 20
350437.0599000007
 10
110467.148
 20
350437.1308999993
 10
110466.9885999998
 20
350437.1964999997
 10
110466.8269999996
 20
350437.2565000001
 10
110466.6634999998
 20
350437.3109000009
 10
110466.4982000002
 20
350437.3596999999
 10
110466.3312999997
 20
350437.4026999995
 10
110466.1629999997
 20
350437.4399999995
 10
110465.9934999999
 20
350437.4714000002
 10
110465.8229999998
 20
350437.4969999995
 10
110465.6518000001
 20
350437.5166999996
 10
110465.4800000004
 20
350437.5305000003
 10
110465.3077999996
 20
350437.5383000001
 10
110465.1354
 20
350437.5402000007
 10
110464.9631000003
 20
350437.5362
 10
110464.7910000002
 20
350437.5262000002
 10
110464.6194000002
 20
350437.5102999993
 10
110464.4484000001
 20
350437.488500001
 10
110464.2781999996
 20
350437.4607999996
 10
110464.1091999998
 20
350437.4272000008
 10
110463.9413000001
 20
350437.3879000005
 10
110463.7750000003
 20
350437.3428000007
 10
110463.1503999997
 20
350437.1914000009
 10
110462.5208999999
 20
350437.0618999992
 10
110461.8871999997
 20
350436.9546000008
 10
110461.2501999996
 20
350436.8695
 10
110460.6106000002
 20
350436.8068000004
 10
110459.9691000003
 20
350436.7665
 10
110459.3267000001
 20
350436.7487000004
 10
110458.6840000004
 20
350436.7533999999
 10
110458.0418999996
 20
350436.7806000002
 10
110457.4012000002
 20
350436.8302999996
 10
110456.7625000002
 20
350436.9023000002
 10
110456.1267999997
 20
350436.9967000001
 10
110455.4948000004
 20
350437.1132999994
 10
110454.8672000002
 20
350437.2519000006
1001
AcMap_E615D161-C9D7-11d3-839F-0060B0FB6B57
1071
        1
1071
        1
  0
LWPOLYLINE
  5
26A
330
1F
100
AcDbEntity
  8
P_SV_SB_ACHS_0
100
AcDbPolyline
 90
       29
 70
     0
 43
0.0
 10
109926.3871999998
 20
350187.8253000006
 10
109923.3598999996
 20
350179.0777000003
 10
109923.2478999998
 20
350178.7459999994
 10
109923.1474999999
 20
350178.4104999993
 10
109923.0590000003
 20
350178.0717999992
 10
109922.9823000003
 20
350177.7302000002
 10
109922.9177000001
 20
350177.3860999998
 10
109922.8651
 20
350177.0398999993
 10
109922.8246999997
 20
350176.6920999997
 10
109922.7966
 20
350176.3431000002
 10
109922.7806000002
 20
350175.9934000001
 10
109922.7768999999
 20
350175.6433000006
 10
109922.7854000004
 20
350175.2932999991
 10
109922.8062000005
 20
350174.9438000005
 10
109922.8393000001
 20
350174.5952000004
 10
109922.8844999997
 20
350174.2479999997
 10
109922.9418000001
 20
350173.9025999997
 10
109923.0111999996
 20
350173.5593999997
 10
109923.0925000002
 20
350173.2189000007
 10
109923.1858000001
 20
350172.8814000003
 10
109923.2906999998
 20
350172.5473999996
 10
109923.4073
 20
350172.2172999997
 10
109923.5354000004
 20
350171.8914000001
 10
109923.6749
 20
350171.5702999998
 10
109923.8255000003
 20
350171.2542000003
 10
109923.9869999997
 20
350170.9436000008
 10
109924.1593000004
 20
350170.6388000008
 10
109924.3421999998
 20
350170.3401999995
 10
109926.2819999996
 20
350167.6992000007
1001
AcMap_E615D161-C9D7-11d3-839F-0060B0FB6B57
1071
        1
1071
        1
  0
LWPOLYLINE
  5
26B
330
1F
100
AcDbEntity
  8
P_SV_SB_ACHS_0
100
AcDbPolyline
 90
      562
 70
     0
 43
0.0
 10
109402.6449999995
 20
349782.5549999998
 10
109404.9299999997
 20
349783.5749999993
 10
109407.2099999999
 20
349784.5899999999
 10
109409.4950000001
 20
349785.6099999995
 10
109411.7800000002
 20
349786.6300000008
 10
109414.0599999996
 20
349787.6500000004
 10
109416.3449999997
 20
349788.67
 10
109418.625
 20
349789.6850000005
 10
109420.7949999999
 20
349790.6549999993
 10
109423.08
 20
349791.6750000007
 10
109425.3600000003
 20
349792.6950000003
 10
109427.6449999995
 20
349793.7100000009
 10
109429.9249999998
 20
349794.7300000005
 10
109432.2599999998
 20
349795.7750000004
 10
109434.5449999999
 20
349796.795
 10
109436.8200000003
 20
349797.8249999993
 10
109439.0449999999
 20
349798.8399999999
 10
109441.3099999996
 20
349799.9000000004
 10
109443.5599999996
 20
349800.9849999994
 10
109445.7999999998
 20
349802.0999999996
 10
109448.0199999996
 20
349803.2449999992
 10
109451.165
 20
349804.9649999999
 10
109453.3349999999
 20
349806.2100000009
 10
109455.4800000004
 20
349807.4900000002
 10
109456.6849999996
 20
349808.2300000004
 10
109458.8099999996
 20
349809.5549999997
 10
109460.915
 20
349810.9000000004
 10
109463.0149999996
 20
349812.2550000009
 10
109465.1050000004
 20
349813.625
 10
109467.46
 20
349815.17
 10
109469.5499999998
 20
349816.545
 10
109471.6449999995
 20
349817.9100000001
 10
109473.4800000004
 20
349819.0899999999
 10
109475.5949999997
 20
349820.4299999997
 10
109477.7199999997
 20
349821.7449999992
 10
109479.8600000003
 20
349823.0299999994
 10
109482.0250000004
 20
349824.2850000002
 10
109483.8099999996
 20
349825.2850000002
 10
109486.0149999997
 20
349826.4649999999
 10
109488.2400000002
 20
349827.6050000005
 10
109492.9599999999
 20
349829.8450000007
 10
109495.25
 20
349830.8550000004
 10
109497.5549999997
 20
349831.8200000003
 10
109499.8700000001
 20
349832.7550000008
 10
109502.2000000002
 20
349833.6649999991
 10
109504.54
 20
349834.5449999999
 10
109506.8899999996
 20
349835.4100000002
 10
109509.4550000001
 20
349836.3300000001
 10
109511.8099999996
 20
349837.1699999999
 10
109514.6799999997
 20
349838.1850000006
 10
109517.0350000001
 20
349839.0150000006
 10
109519.3899999997
 20
349839.8499999996
 10
109521.75
 20
349840.6799999997
 10
109524.1050000004
 20
349841.5150000006
 10
109526.4649999998
 20
349842.3450000007
 10
109528.3099999996
 20
349842.9949999992
 10
109530.665
 20
349843.8300000001
 10
109533.0250000004
 20
349844.6600000002
 10
109535.3799999999
 20
349845.4949999992
 10
109537.7400000002
 20
349846.3249999993
 10
109540.0949999997
 20
349847.1600000002
 10
109542.4550000001
 20
349847.9900000003
 10
109544.8099999996
 20
349848.8249999993
 10
109547.1699999999
 20
349849.6549999994
 10
109549.5250000004
 20
349850.4900000003
 10
109551.8849999998
 20
349851.3200000003
 10
109554.2400000002
 20
349852.1549999993
 10
109556.5949999997
 20
349852.9849999994
 10
109558.9550000001
 20
349853.8200000003
 10
109561.3099999996
 20
349854.6500000004
 10
109563.6699999999
 20
349855.4849999994
 10
109566.0250000004
 20
349856.3149999995
 10
109568.3849999998
 20
349857.1500000004
 10
109570.7400000002
 20
349857.9800000005
 10
109573.0999999996
 20
349858.8149999995
 10
109575.3200000003
 20
349859.5999999996
 10
109577.6749999998
 20
349860.4350000005
 10
109580.0199999995
 20
349861.3000000008
 10
109582.3499999996
 20
349862.2100000009
 10
109584.7850000001
 20
349863.2400000003
 10
109587.0499999998
 20
349864.3000000008
 10
109589.2649999997
 20
349865.4600000009
 10
109591.415
 20
349866.7300000005
 10
109594.6500000003
 20
349869.0150000006
 10
109596.5549999997
 20
349870.6349999998
 10
109598.3399999998
 20
349872.3900000006
 10
109599.9900000002
 20
349874.2599999998
 10
109600.6349999997
 20
349875.0749999993
 10
109602.0899999998
 20
349877.1050000005
 10
109603.4000000003
 20
349879.2349999995
 10
109604.5499999998
 20
349881.4550000001
 10
109605.54
 20
349883.75
 10
109606.5549999997
 20
349886.7449999992
 10
109607.1699999999
 20
349889.1649999991
 10
109607.6349999997
 20
349891.6199999992
 10
109607.8949999995
 20
349893.4399999996
 10
109608.1500000003
 20
349895.9299999997
 10
109608.3099999996
 20
349898.4250000007
 10
109608.3949999995
 20
349900.92
 10
109608.4299999997
 20
349903.4199999999
 10
109608.4249999998
 20
349905.92
 10
109608.4249999998
 20
349906.6899999995
 10
109608.4000000004
 20
349910.6899999995
 10
109608.4000000004
 20
349913.42
 10
109608.4199999999
 20
349915.92
 10
109608.4599999999
 20
349918.4199999999
 10
109608.54
 20
349920.9199999999
 10
109608.6299999999
 20
349922.8849999998
 10
109608.9050000002
 20
349926.8750000001
 10
109609.1399999997
 20
349929.3650000003
 10
109609.4299999997
 20
349931.8499999996
 10
109609.6299999999
 20
349933.3650000003
 10
109609.9950000001
 20
349935.8399999998
 10
109610.4100000001
 20
349938.3049999997
 10
109610.875
 20
349940.7599999998
 10
109611.3899999997
 20
349943.2100000009
 10
109611.9500000002
 20
349945.6449999996
 10
109612.5650000004
 20
349948.0649999995
 10
109613.9349999996
 20
349952.875
 10
109614.7000000002
 20
349955.2550000009
 10
109615.5350000001
 20
349957.6099999995
 10
109616.4550000001
 20
349959.9350000006
 10
109617.4649999998
 20
349962.2249999997
 10
109618.2599999998
 20
349963.8499999996
 10
109620.2149999998
 20
349967.3399999999
 10
109621.5750000002
 20
349969.4350000006
 10
109622.5549999997
 20
349970.8100000005
 10
109624.085
 20
349972.7899999991
 10
109625.7149999998
 20
349974.6850000005
 10
109627.4349999996
 20
349976.4949999992
 10
109629.2450000001
 20
349978.2200000007
 10
109631.1399999996
 20
349979.8550000005
 10
109633.1100000003
 20
349981.3900000006
 10
109635.1600000001
 20
349982.8249999993
 10
109639.4299999997
 20
349985.3650000002
 10
109641.665
 20
349986.4849999994
 10
109643.9500000002
 20
349987.5050000009
 10
109646.2649999996
 20
349988.4499999993
 10
109648.6050000004
 20
349989.3200000003
 10
109650.9699999997
 20
349990.1349999998
 10
109653.3449999997
 20
349990.9100000002
 10
109658.5800000001
 20
349992.5299999993
 10
109660.9749999996
 20
349993.2599999998
 10
109663.3650000002
 20
349993.9900000003
 10
109665.7549999999
 20
349994.7249999997
 10
109668.1449999995
 20
349995.4550000001
 10
109668.2099999999
 20
349995.4749999997
 10
109672.0350000001
 20
349996.6449999996
 10
109674.8799999999
 20
349997.5250000004
 10
109677.2649999997
 20
349998.2699999995
 10
109679.6449999995
 20
349999.0299999993
 10
109682.0250000003
 20
349999.8100000006
 10
109684.3949999995
 20
350000.6050000005
 10
109686.7549999999
 20
350001.42
 10
109689.1100000003
 20
350002.2650000006
 10
109693.7800000002
 20
350004.045
 10
109696.0999999996
 20
350004.9800000005
 10
109698.4000000003
 20
350005.9550000001
 10
109700.6900000004
 20
350006.9600000009
 10
109702.9649999998
 20
350007.9949999992
 10
109705.2249999996
 20
350009.0649999995
 10
109707.4699999997
 20
350010.1649999991
 10
109709.7000000002
 20
350011.3000000008
 10
109711.9100000001
 20
350012.4649999999
 10
109714.1050000004
 20
350013.6649999991
 10
109716.2800000003
 20
350014.8900000006
 10
109718.4400000004
 20
350016.1500000004
 10
109720.5849999999
 20
350017.4399999995
 10
109722.705
 20
350018.7599999998
 10
109724.8099999996
 20
350020.1099999994
 10
109726.8949999995
 20
350021.4900000003
 10
109728.9455000004
 20
350022.8901000004
 10
109731.0049
 20
350024.3399000001
 10
109733.0250000004
 20
350025.8100000006
 10
109735.0621999996
 20
350027.3299000003
 10
109737.0099999998
 20
350028.8350000009
 10
109738.9649999998
 20
350030.3849999998
 10
109740.9616
 20
350032.0184000005
 10
109742.8049999997
 20
350033.5924999993
 10
109744.7050000001
 20
350035.2149999998
 10
109746.5750000002
 20
350036.8750000001
 10
109748.4249999998
 20
350038.5549999997
 10
109750.2599999998
 20
350040.2550000008
 10
109752.08
 20
350041.9700000007
 10
109753.8849999998
 20
350043.6999999993
 10
109755.6749999998
 20
350045.4399999995
 10
109757.4599999999
 20
350047.1899999995
 10
109759.2400000002
 20
350048.9499999993
 10
109761.0149999996
 20
350050.7100000009
 10
109763.3099999996
 20
350052.9949999992
 10
109765.0800000001
 20
350054.7599999998
 10
109766.8499999996
 20
350056.5250000004
 10
109768.6200000001
 20
350058.2899999991
 10
109770.3949999995
 20
350060.0500000007
 10
109772.165
 20
350061.8149999995
 10
109773.4100000001
 20
350063.0600000005
 10
109775.1849999996
 20
350064.8249999993
 10
109776.9550000001
 20
350066.5899999999
 10
109778.7249999996
 20
350068.3550000005
 10
109780.4950000001
 20
350070.1199999992
 10
109782.2699999995
 20
350071.8800000008
 10
109784.04
 20
350073.6449999996
 10
109785.8099999996
 20
350075.4100000002
 10
109793.1749999998
 20
350082.7500000001
 10
109794.9500000002
 20
350084.5150000007
 10
109796.7300000004
 20
350086.2699999995
 10
109798.5149999996
 20
350088.0150000006
 10
109800.3200000003
 20
350089.75
 10
109801.8499999996
 20
350091.1899999995
 10
109803.6900000004
 20
350092.8800000008
 10
109805.5549999997
 20
350094.545
 10
109807.4500000002
 20
350096.1750000008
 10
109809.3799999999
 20
350097.7650000006
 10
109811.6600000001
 20
350099.5549999998
 10
109813.665
 20
350101.045
 10
109815.7099999999
 20
350102.4849999994
 10
109817.4550000001
 20
350103.6549999994
 10
109819.5650000004
 20
350105.0
 10
109821.7050000001
 20
350106.2899999991
 10
109823.875
 20
350107.5250000004
 10
109826.0800000001
 20
350108.710000001
 10
109828.3099999996
 20
350109.835000001
 10
109830.5700000003
 20
350110.9049999994
 10
109832.8550000004
 20
350111.92
 10
109837.9199999999
 20
350113.9299999997
 10
109840.2800000003
 20
350114.7599999998
 10
109842.6500000003
 20
350115.545
 10
109845.0350000001
 20
350116.2949999999
 10
109847.4299999997
 20
350117.0099999998
 10
109849.8300000001
 20
350117.7100000009
 10
109854.2099999999
 20
350118.9600000009
 10
109856.6100000003
 20
350119.6549999993
 10
109859.0049999999
 20
350120.3650000002
 10
109861.3949999995
 20
350121.0999999996
 10
109863.7750000003
 20
350121.8699999992
 10
109866.1399999997
 20
350122.6799999997
 10
109868.4349999996
 20
350123.5299999994
 10
109870.7599999998
 20
350124.4550000001
 10
109873.1050000004
 20
350125.4550000001
 10
109875.3799999999
 20
350126.4900000002
 10
109877.625
 20
350127.5850000009
 10
109879.8449999997
 20
350128.7400000002
 10
109882.0350000001
 20
350129.9450000003
 10
109884.1950000003
 20
350131.2050000001
 10
109886.3200000003
 20
350132.5199999996
 10
109888.415
 20
350133.8849999998
 10
109890.4749999996
 20
350135.3049999997
 10
109892.4950000001
 20
350136.7750000003
 10
109894.4800000004
 20
350138.2949999999
 10
109896.4249999998
 20
350139.8650000002
 10
109899.3449999997
 20
350142.3699999993
 10
109901.1900000004
 20
350144.0600000005
 10
109903.0
 20
350145.7799999994
 10
109904.7850000001
 20
350147.5350000002
 10
109905.5999999996
 20
350148.3499999996
 10
109907.3550000004
 20
350150.1300000008
 10
109909.0949999997
 20
350151.9199999999
 10
109910.7300000004
 20
350153.6099999994
 10
109912.4699999997
 20
350155.4000000004
 10
109914.2249999996
 20
350157.1850000006
 10
109915.9950000001
 20
350158.9450000003
 10
109917.7999999998
 20
350160.6750000008
 10
109922.5549999997
 20
350164.8599999994
 10
109924.5199999995
 20
350166.4049999994
 10
109926.5350000001
 20
350167.8849999998
 10
109928.5999999996
 20
350169.295
 10
109930.7099999999
 20
350170.6349999998
 10
109932.8600000003
 20
350171.9049999993
 10
109935.0549999997
 20
350173.1050000004
 10
109935.5599999996
 20
350173.3650000003
 10
109938.4800000004
 20
350174.7899999991
 10
109940.7699999995
 20
350175.8000000008
 10
109943.0899999998
 20
350176.7349999994
 10
109945.4400000004
 20
350177.5850000009
 10
109947.8150000004
 20
350178.3650000002
 10
109950.2149999998
 20
350179.0600000005
 10
109952.6399999996
 20
350179.6750000008
 10
109955.7149999998
 20
350180.335000001
 10
109958.1799999997
 20
350180.7699999996
 10
109960.6500000003
 20
350181.1349999998
 10
109963.1349999998
 20
350181.4399999995
 10
109965.6200000001
 20
350181.6950000004
 10
109968.1100000003
 20
350181.9049999993
 10
109970.6050000004
 20
350182.0899999998
 10
109973.0999999996
 20
350182.25
 10
109976.9249999998
 20
350182.4749999997
 10
109979.4199999999
 20
350182.6199999992
 10
109981.915
 20
350182.7799999993
 10
109984.4100000001
 20
350182.9550000001
 10
109986.9050000003
 20
350183.1549999994
 10
109989.3899999996
 20
350183.3849999998
 10
109991.875
 20
350183.6600000002
 10
109994.125
 20
350183.9499999993
 10
109997.3349999999
 20
350184.4499999993
 10
109999.2850000001
 20
350184.8049999998
 10
110001.7350000003
 20
350185.3149999995
 10
110004.165
 20
350185.8900000006
 10
110006.585
 20
350186.5350000001
 10
110008.9800000004
 20
350187.2449999992
 10
110011.3550000004
 20
350188.0250000005
 10
110014.1950000003
 20
350189.0500000008
 10
110016.5149999996
 20
350189.9700000007
 10
110018.8150000004
 20
350190.9550000001
 10
110021.0849999999
 20
350192.0050000008
 10
110023.3250000002
 20
350193.1199999992
 10
110025.5300000003
 20
350194.2899999991
 10
110027.705
 20
350195.5250000004
 10
110029.8399999998
 20
350196.8200000003
 10
110031.9450000003
 20
350198.1750000008
 10
110034.0099999998
 20
350199.5850000009
 10
110036.0300000002
 20
350201.0549999997
 10
110038.0149999997
 20
350202.5749999993
 10
110039.9550000001
 20
350204.1549999994
 10
110041.8449999997
 20
350205.7850000002
 10
110043.6950000003
 20
350207.4700000007
 10
110047.2450000001
 20
350210.9849999995
 10
110048.9400000004
 20
350212.8300000001
 10
110050.5599999996
 20
350214.7300000004
 10
110052.0949999997
 20
350216.6999999993
 10
110053.54
 20
350218.7449999992
 10
110054.8700000001
 20
350220.8599999995
 10
110056.25
 20
350223.3949999996
 10
110057.2999999998
 20
350225.6649999991
 10
110058.0700000003
 20
350227.6300000009
 10
110058.8499999996
 20
350230.0050000008
 10
110059.4749999996
 20
350232.4250000008
 10
110059.9500000002
 20
350234.8800000009
 10
110060.2750000003
 20
350237.3599999994
 10
110060.4400000004
 20
350239.8499999997
 10
110060.4500000002
 20
350242.3499999996
 10
110060.3650000002
 20
350244.125
 10
110060.0250000004
 20
350247.3300000001
 10
110059.6349999998
 20
350249.8000000008
 10
110059.1699999999
 20
350252.2550000009
 10
110058.665
 20
350254.7050000001
 10
110058.2599999998
 20
350256.5899999999
 10
110057.75
 20
350259.0399999991
 10
110057.29
 20
350261.4949999992
 10
110056.9199999999
 20
350263.9700000007
 10
110056.6449999995
 20
350267.0250000004
 10
110056.6200000001
 20
350269.7899999991
 10
110056.8150000004
 20
350272.2799999994
 10
110057.2149999998
 20
350274.7449999992
 10
110057.8200000003
 20
350277.17
 10
110058.625
 20
350279.5350000002
 10
110059.625
 20
350281.8300000001
 10
110060.8099999996
 20
350284.0299999994
 10
110062.0250000003
 20
350285.9049999994
 10
110063.5449999999
 20
350287.8949999996
 10
110065.2199999997
 20
350289.7449999992
 10
110067.0449999999
 20
350291.4499999993
 10
110069.0099999998
 20
350293.0
 10
110071.0949999997
 20
350294.3800000009
 10
110073.9800000004
 20
350295.9149999991
 10
110076.2850000001
 20
350296.8800000008
 10
110077.915
 20
350297.4499999993
 10
110080.3150000004
 20
350298.1500000004
 10
110082.75
 20
350298.7149999999
 10
110085.21
 20
350299.1799999997
 10
110087.6799999997
 20
350299.5600000005
 10
110090.1600000001
 20
350299.8849999998
 10
110092.6399999996
 20
350300.1699999999
 10
110094.2350000003
 20
350300.3499999997
 10
110096.7199999997
 20
350300.6300000008
 10
110097.6100000003
 20
350300.7300000005
 10
110100.0949999997
 20
350301.0099999998
 10
110102.5800000001
 20
350301.2899999991
 10
110105.0650000004
 20
350301.5700000003
 10
110107.5449999999
 20
350301.8499999997
 10
110110.0300000003
 20
350302.1300000008
 10
110112.5149999996
 20
350302.4100000002
 10
110115.0
 20
350302.6899999995
 10
110117.4850000003
 20
350302.9649999998
 10
110119.9699999997
 20
350303.2449999992
 10
110122.3600000003
 20
350303.5150000006
 10
110124.8449999997
 20
350303.8000000008
 10
110127.3300000001
 20
350304.0899999998
 10
110129.8099999996
 20
350304.4049999993
 10
110132.2850000001
 20
350304.7449999992
 10
110134.7549999999
 20
350305.125
 10
110137.3099999996
 20
350305.5649999995
 10
110139.7649999996
 20
350306.0449999999
 10
110142.205
 20
350306.5899999999
 10
110146.0650000004
 20
350307.5999999996
 10
110148.4550000001
 20
350308.3399999999
 10
110150.8150000004
 20
350309.1549999993
 10
110153.1500000004
 20
350310.0500000008
 10
110155.4550000001
 20
350311.0199999996
 10
110156.375
 20
350311.4350000006
 10
110158.6299999999
 20
350312.5150000006
 10
110160.8449999997
 20
350313.6649999991
 10
110163.0250000003
 20
350314.8900000006
 10
110165.0250000004
 20
350316.1050000005
 10
110167.1200000001
 20
350317.4649999999
 10
110169.1749999998
 20
350318.8900000007
 10
110171.1950000003
 20
350320.3650000003
 10
110173.3049999997
 20
350321.9849999994
 10
110175.2549999999
 20
350323.5500000008
 10
110177.1799999997
 20
350325.1500000004
 10
110179.08
 20
350326.7699999996
 10
110180.9649999998
 20
350328.4149999991
 10
110182.8349999999
 20
350330.0700000004
 10
110184.7000000002
 20
350331.7349999994
 10
110184.9500000002
 20
350331.9600000009
 10
110188.4249999998
 20
350335.0749999993
 10
110190.2850000001
 20
350336.7400000003
 10
110192.1500000003
 20
350338.4100000002
 10
110194.0099999998
 20
350340.0749999993
 10
110195.875
 20
350341.7449999992
 10
110197.7350000003
 20
350343.4149999991
 10
110199.5999999996
 20
350345.0800000001
 10
110201.4599999999
 20
350346.75
 10
110203.3200000003
 20
350348.42
 10
110205.1849999996
 20
350350.0850000009
 10
110207.0449999999
 20
350351.7550000009
 10
110208.9100000001
 20
350353.4199999999
 10
110210.7699999995
 20
350355.0899999999
 10
110212.6299999999
 20
350356.7599999998
 10
110214.4950000001
 20
350358.4250000008
 10
110216.3550000004
 20
350360.0950000007
 10
110218.2199999997
 20
350361.7650000006
 10
110220.0800000001
 20
350363.4299999998
 10
110221.9450000003
 20
350365.0999999996
 10
110223.8049999997
 20
350366.7650000006
 10
110225.665
 20
350368.4350000006
 10
110227.5300000002
 20
350370.1050000004
 10
110229.3899999996
 20
350371.7699999996
 10
110231.2549999999
 20
350373.4399999995
 10
110233.1150000002
 20
350375.1099999995
 10
110234.9749999996
 20
350376.7750000004
 10
110236.8399999998
 20
350378.4450000003
 10
110238.7000000002
 20
350380.1150000003
 10
110240.5650000004
 20
350381.7799999994
 10
110242.4249999998
 20
350383.4499999993
 10
110244.2850000001
 20
350385.1150000003
 10
110246.1500000003
 20
350386.7850000002
 10
110248.0099999998
 20
350388.4550000001
 10
110249.875
 20
350390.1199999992
 10
110251.7350000003
 20
350391.7899999991
 10
110253.5999999996
 20
350393.460000001
 10
110255.4599999999
 20
350395.125
 10
110257.3200000003
 20
350396.7949999999
 10
110259.1849999996
 20
350398.4600000009
 10
110261.0449999999
 20
350400.1300000009
 10
110262.9100000001
 20
350401.8000000008
 10
110264.7699999995
 20
350403.4649999999
 10
110266.6299999999
 20
350405.1349999998
 10
110268.4950000001
 20
350406.8049999997
 10
110270.3550000004
 20
350408.4700000007
 10
110272.2199999997
 20
350410.1400000006
 10
110274.0800000001
 20
350411.8049999997
 10
110275.9450000003
 20
350413.4749999997
 10
110279.2549999999
 20
350416.4399999995
 10
110281.1150000002
 20
350418.1099999994
 10
110282.9850000003
 20
350419.7699999996
 10
110284.8650000002
 20
350421.4149999992
 10
110286.7599999997
 20
350423.0500000008
 10
110288.6699999999
 20
350424.6600000002
 10
110290.6050000004
 20
350426.2449999992
 10
110292.4100000001
 20
350427.6799999998
 10
110294.9950000001
 20
350429.6449999996
 10
110297.0250000004
 20
350431.1050000005
 10
110299.0899999998
 20
350432.5150000006
 10
110301.1900000004
 20
350433.8699999992
 10
110302.8650000002
 20
350434.8849999998
 10
110305.0350000001
 20
350436.125
 10
110307.2450000001
 20
350437.295
 10
110309.9800000004
 20
350438.625
 10
110312.2649999996
 20
350439.6349999999
 10
110314.5849999999
 20
350440.5800000001
 10
110316.9249999998
 20
350441.4450000003
 10
110319.2949999999
 20
350442.2400000002
 10
110321.6900000004
 20
350442.9600000009
 10
110324.1050000004
 20
350443.6050000005
 10
110326.54
 20
350444.1750000008
 10
110328.9900000002
 20
350444.67
 10
110331.4550000001
 20
350445.0850000009
 10
110333.9299999997
 20
350445.4250000008
 10
110336.4199999999
 20
350445.6899999996
 10
110338.9100000001
 20
350445.8699999992
 10
110341.4100000001
 20
350445.9800000005
 10
110343.0199999995
 20
350446.0050000009
 10
110345.5199999995
 20
350445.9849999995
 10
110348.0149999996
 20
350445.8949999996
 10
110348.9050000002
 20
350445.8499999997
 10
110351.4000000004
 20
350445.6750000008
 10
110353.8899999996
 20
350445.4450000003
 10
110356.375
 20
350445.1699999999
 10
110358.8550000004
 20
350444.8550000005
 10
110361.3300000001
 20
350444.5050000008
 10
110363.7999999998
 20
350444.125
 10
110366.2699999995
 20
350443.7249999997
 10
110367.9950000001
 20
350443.4350000006
 10
110371.1950000003
 20
350442.8849999998
 10
110372.7949999999
 20
350442.6099999994
 10
110375.2599999998
 20
350442.1799999998
 10
110377.7199999997
 20
350441.7550000009
 10
110380.1849999996
 20
350441.3300000001
 10
110382.6500000004
 20
350440.9000000004
 10
110385.1100000003
 20
350440.4749999996
 10
110387.5750000002
 20
350440.0449999999
 10
110388.4400000004
 20
350439.9000000004
 10
110390.9050000003
 20
350439.4700000007
 10
110393.3650000002
 20
350439.045
 10
110395.8300000001
 20
350438.6150000003
 10
110398.2949999999
 20
350438.1899999995
 10
110400.7549999999
 20
350437.7650000007
 10
110403.2199999997
 20
350437.335000001
 10
110405.6849999996
 20
350436.9100000002
 10
110408.1449999995
 20
350436.4849999994
 10
110410.6100000003
 20
350436.0549999997
 10
110413.0750000002
 20
350435.6300000008
 10
110415.5350000001
 20
350435.2050000001
 10
110418.0
 20
350434.7750000004
 10
110420.4649999998
 20
350434.3499999997
 10
110422.9249999998
 20
350433.9250000008
 10
110425.3899999997
 20
350433.4949999992
 10
110427.8550000004
 20
350433.0700000004
 10
110430.3150000004
 20
350432.6449999996
 10
110432.7800000002
 20
350432.2149999999
 10
110435.2450000001
 20
350431.7899999991
 10
110437.705
 20
350431.3650000002
 10
110440.1699999999
 20
350430.9350000005
 10
110442.6349999998
 20
350430.5099999998
 10
110445.0949999997
 20
350430.0800000001
 10
110447.5599999996
 20
350429.6549999994
 10
110450.0250000004
 20
350429.2300000005
 10
110452.4850000003
 20
350428.8000000008
 10
110454.9500000002
 20
350428.3750000001
 10
110457.415
 20
350427.9499999993
 10
110459.875
 20
350427.5199999996
 10
110462.3399999998
 20
350427.0950000007
 10
110464.8049999997
 20
350426.67
 10
110467.2649999996
 20
350426.2400000003
 10
110469.7300000004
 20
350425.8149999995
 10
110472.1950000003
 20
350425.3900000006
 10
110474.6550000002
 20
350424.9600000009
 10
110477.1200000001
 20
350424.5350000001
 10
110479.5849999999
 20
350424.1099999994
 10
110482.0449999999
 20
350423.6799999997
 10
110484.5099999998
 20
350423.2550000008
 10
110486.9749999996
 20
350422.8300000001
 10
110489.4349999996
 20
350422.4000000004
 10
110491.9000000004
 20
350421.9749999997
 10
110494.3600000003
 20
350421.5500000008
 10
110496.8250000002
 20
350421.1199999992
 10
110499.29
 20
350420.6950000003
 10
110501.75
 20
350420.2650000006
 10
110504.2149999998
 20
350419.8399999999
 10
110506.6799999997
 20
350419.4149999992
 10
110509.1399999996
 20
350418.9849999995
 10
110511.6050000004
 20
350418.5600000005
 10
110514.0700000003
 20
350418.1349999998
 10
110516.5300000003
 20
350417.7050000001
 10
110518.9950000001
 20
350417.2799999994
 10
110521.46
 20
350416.8550000005
 10
110523.9199999999
 20
350416.4250000008
 10
110528.8499999996
 20
350415.5749999993
 10
110531.3099999996
 20
350415.1449999996
 10
110533.7750000003
 20
350414.7200000007
 10
110536.2400000002
 20
350414.2949999999
 10
110538.7000000002
 20
350413.8650000002
1001
AcMap_E615D161-C9D7-11d3-839F-0060B0FB6B57
1071
        1
1071
        1
  0
LWPOLYLINE
  5
26D
330
1F
100
AcDbEntity
  8
P_SV_SB_FBRD_0
100
AcDbPolyline
 90
       37
 70
     0
 43
0.0
 10
109574.5817
 20
349862.7833999992
 10
109577.3793000001
 20
349863.8236999996
 10
109580.1408000002
 20
349864.9562999997
 10
109582.8631999995
 20
349866.1798
 10
109585.5434999997
 20
349867.4929000009
 10
109588.1788999997
 20
349868.8942000009
 10
109589.1301999995
 20
349869.4422999993
 10
109590.0618000002
 20
349870.0231999997
 10
109590.9726
 20
349870.6362999995
 10
109591.8614999996
 20
349871.2807
 10
109592.7274000002
 20
349871.9557000008
 10
109593.5691999998
 20
349872.6603999995
 10
109594.3859999999
 20
349873.3940999993
 10
109595.1766999997
 20
349874.1557999998
 10
109595.9403999997
 20
349874.9444999993
 10
109596.6760999998
 20
349875.7595000006
 10
109597.3830000004
 20
349876.5995000005
 10
109598.0602000002
 20
349877.4637000003
 10
109598.7068999996
 20
349878.3509999999
 10
109599.3222000003
 20
349879.2601999995
 10
109599.9055000003
 20
349880.1903000008
 10
109600.4560000002
 20
349881.1402000003
 10
109600.9731
 20
349882.1087999996
 10
109601.4561
 20
349883.0946999993
 10
109601.9045000002
 20
349884.0968999993
 10
109602.3175999997
 20
349885.1140999999
 10
109602.6951000001
 20
349886.1450999994
 10
109603.0363999996
 20
349887.1886
 10
109603.3410999998
 20
349888.2433000002
 10
109603.6089000003
 20
349889.3081000001
 10
109603.8394999998
 20
349890.3815000002
 10
109604.0323999999
 20
349891.4623000008
 10
109604.4479999998
 20
349894.3529000003
 10
109604.7704999996
 20
349897.2553000003
 10
109604.9996999996
 20
349900.1666000002
 10
109605.1353000002
 20
349903.0837999992
 10
109605.1771999998
 20
349906.0037999992
1001
AcMap_E615D161-C9D7-11d3-839F-0060B0FB6B57
1071
        1
1071
        2
  0
LWPOLYLINE
  5
26E
330
1F
100
AcDbEntity
  8
P_SV_SB_FBRD_0
100
AcDbPolyline
 90
       32
 70
     0
 43
0.0
 10
109655.3592999996
 20
349988.1473999992
 10
109652.4137000004
 20
349987.1975999996
 10
109649.4989999998
 20
349986.1571999993
 10
109646.6178000001
 20
349985.0270000008
 10
109643.773
 20
349983.8081999999
 10
109642.2942000003
 20
349983.1161000003
 10
109640.8404999999
 20
349982.3728000001
 10
109639.4135999996
 20
349981.5789999999
 10
109638.0153999999
 20
349980.7358999998
 10
109636.6474999999
 20
349979.8443999998
 10
109635.3117000004
 20
349978.9056000002
 10
109634.0093999998
 20
349977.9207000006
 10
109632.7423999999
 20
349976.8909000009
 10
109631.5121999998
 20
349975.8173999992
 10
109630.3202999998
 20
349974.7016000003
 10
109629.1679999996
 20
349973.5447000005
 10
109628.057
 20
349972.3483000007
 10
109626.9884000001
 20
349971.1138000004
 10
109625.9637000002
 20
349969.8427000009
 10
109624.9840000002
 20
349968.5364999995
 10
109624.0505999997
 20
349967.1969000008
 10
109623.1645999998
 20
349965.8254000005
 10
109622.3271000003
 20
349964.4239000008
 10
109621.5390999997
 20
349962.9938999992
 10
109620.8015999999
 20
349961.5372000002
 10
109620.1153999995
 20
349960.0556000006
 10
109619.4814999997
 20
349958.5510000009
 10
109618.4378000004
 20
349955.8335999996
 10
109617.4736000001
 20
349953.0869999994
 10
109616.5898000002
 20
349950.3135000002
 10
109615.7871000003
 20
349947.5154999998
 10
109615.0662000002
 20
349944.6951999999
1001
AcMap_E615D161-C9D7-11d3-839F-0060B0FB6B57
1071
        1
1071
        2
  0
LWPOLYLINE
  5
26F
330
1F
100
AcDbEntity
  8
P_SV_SB_FBRD_0
100
AcDbPolyline
 90
       27
 70
     0
 43
0.0
 10
110042.1390000004
 20
350210.8173999991
 10
110044.1475999998
 20
350212.9881999996
 10
110046.0834999997
 20
350215.2239999995
 10
110047.9446999999
 20
350217.5223999992
 10
110049.7291999999
 20
350219.8807999995
 10
110050.4428000003
 20
350220.8927999996
 10
110051.1213999996
 20
350221.9285000004
 10
110051.7642999999
 20
350222.9868000001
 10
110052.3706
 20
350224.0664000009
 10
110052.9397
 20
350225.1660999991
 10
110053.4709000001
 20
350226.2846000009
 10
110053.9636000004
 20
350227.4206000008
 10
110054.4172
 20
350228.5727999993
 10
110054.8311999999
 20
350229.7398000006
 10
110055.2050000001
 20
350230.9201999996
 10
110055.5383999999
 20
350232.1127000004
 10
110055.8307999996
 20
350233.3159999996
 10
110056.0820000004
 20
350234.5284000002
 10
110056.2916000001
 20
350235.7488000002
 10
110056.4594
 20
350236.9756000005
 10
110056.5851999996
 20
350238.2074999996
 10
110056.6688999999
 20
350239.4429000002
 10
110056.7103000004
 20
350240.6804000009
 10
110056.7094999999
 20
350241.9186000004
 10
110056.6662999997
 20
350243.1560999993
 10
110056.5809000004
 20
350244.3914000001
 10
110056.2494000001
 20
350247.5703999996
1001
AcMap_E615D161-C9D7-11d3-839F-0060B0FB6B57
1071
        1
1071
        2
  0
LWPOLYLINE
  5
270
330
1F
100
AcDbEntity
  8
P_SV_SB_FBRD_0
100
AcDbPolyline
 90
        8
 70
     0
 43
0.0
 10
110076.0981999999
 20
350292.8114999999
 10
110075.2872000001
 20
350292.4419
 10
110074.4891999997
 20
350292.0449999999
 10
110073.7050999999
 20
350291.6213000008
 10
110072.9358000001
 20
350291.1712999996
 10
110072.1821999997
 20
350290.6954999995
 10
110071.4452
 20
350290.1943999995
 10
110070.7255999995
 20
350289.6686000005
1001
AcMap_E615D161-C9D7-11d3-839F-0060B0FB6B57
1071
        1
1071
        2
  0
LWPOLYLINE
  5
271
330
1F
100
AcDbEntity
  8
P_SV_SB_FBRD_0
100
AcDbPolyline
 90
       17
 70
     0
 43
0.0
 10
110064.2706000004
 20
350282.5971000009
 10
110063.8098999997
 20
350281.8280999996
 10
110063.3756999997
 20
350281.0438000001
 10
110062.9683999996
 20
350280.2452000008
 10
110062.5886000003
 20
350279.4331
 10
110062.2367000002
 20
350278.6086
 10
110061.9130999995
 20
350277.7726000007
 10
110061.6182000003
 20
350276.926000001
 10
110061.3523000004
 20
350276.0699000005
 10
110061.1156999999
 20
350275.2051999998
 10
110060.9086999996
 20
350274.3329000008
 10
110060.7315999996
 20
350273.4540999997
 10
110060.5845999997
 20
350272.5698000007
 10
110060.4676999999
 20
350271.6809999999
 10
110060.3812999995
 20
350270.7886999995
 10
110060.3251999998
 20
350269.8939999994
 10
110060.2998000001
 20
350268.9978999999
1001
AcMap_E615D161-C9D7-11d3-839F-0060B0FB6B57
1071
        1
1071
        2
  0
LWPOLYLINE
  5
272
330
1F
100
AcDbEntity
  8
P_SV_SB_FBRD_0
100
AcDbPolyline
 90
       40
 70
     0
 43
0.0
 10
110060.3109999997
 20
350269.5237000008
 10
110060.2866000002
 20
350267.8059000001
 10
110060.3212000001
 20
350266.0883000009
 10
110060.4148000003
 20
350264.3728000001
 10
110060.5673000002
 20
350262.6615999993
 10
110060.7785
 20
350260.956700001
 10
110061.0481000002
 20
350259.2599999998
 10
110061.3759000003
 20
350257.5735
 10
110061.7763
 20
350255.6911999993
 10
110061.8192999996
 20
350255.4888000005
 10
110061.8694000002
 20
350255.2881000005
 10
110061.9263000004
 20
350255.0891999994
 10
110061.9900000002
 20
350254.8924000003
 10
110062.0604999996
 20
350254.6978999991
 10
110062.1376
 20
350254.5058999993
 10
110062.2213000003
 20
350254.3167000003
 10
110062.3114999998
 20
350254.1305
 10
110062.4080999996
 20
350253.9475999996
 10
110062.5109000001
 20
350253.7679999992
 10
110062.6198000004
 20
350253.5921999998
 10
110062.7346999999
 20
350253.4201999996
 10
110062.8554999996
 20
350253.2522
 10
110062.9819999998
 20
350253.0885000006
 10
110063.1140999999
 20
350252.9293000009
 10
110063.2516000001
 20
350252.7747000009
 10
110063.3942999998
 20
350252.6249000002
 10
110063.5422
 20
350252.4802000002
 10
110063.6948999995
 20
350252.3406000007
 10
110063.8523000004
 20
350252.2063999996
 10
110064.0142999999
 20
350252.0777000003
 10
110064.1805999996
 20
350251.9547000006
 10
110064.3509999998
 20
350251.8375000004
 10
110064.5253999997
 20
350251.7261999995
 10
110064.7034999998
 20
350251.6208999995
 10
110064.8852000003
 20
350251.5219000001
 10
110065.0701000001
 20
350251.4291999992
 10
110065.2582
 20
350251.3430000004
 10
110065.4490999998
 20
350251.2632999998
 10
110065.6425999999
 20
350251.1901999991
 10
110065.8386000003
 20
350251.1238000002
1001
AcMap_E615D161-C9D7-11d3-839F-0060B0FB6B57
1071
        1
1071
        2
  0
LWPOLYLINE
  5
273
330
1F
100
AcDbEntity
  8
P_SV_SB_FBRD_0
100
AcDbPolyline
 90
       72
 70
     0
 43
0.0
 10
109417.1557
 20
349785.4680000004
 10
109417.0915000001
 20
349785.4417000004
 10
109417.0281999996
 20
349785.4133000001
 10
109416.966
 20
349785.3826000002
 10
109416.9047999997
 20
349785.3498
 10
109416.8448000001
 20
349785.3149999996
 10
109416.7861000001
 20
349785.2780000009
 10
109416.7286999998
 20
349785.2390999999
 10
109416.6726000001
 20
349785.1981000007
 10
109416.6180999996
 20
349785.1553000007
 10
109416.5650000004
 20
349785.1106000002
 10
109416.5135000003
 20
349785.0639999994
 10
109416.4637000002
 20
349785.0157999993
 10
109416.4155999999
 20
349784.9658000003
 10
109416.3691999996
 20
349784.9142000005
 10
109416.3246999998
 20
349784.8609999996
 10
109416.2819999996
 20
349784.8061999996
 10
109416.2412999999
 20
349784.7500999998
 10
109416.2024999997
 20
349784.6925000008
 10
109416.1656999998
 20
349784.6337000002
 10
109416.131
 20
349784.5735999998
 10
109416.0983999995
 20
349784.5123999994
 10
109416.0679999999
 20
349784.4499999993
 10
109416.0396999996
 20
349784.3866000008
 10
109416.0137
 20
349784.3223000001
 10
109415.9899000004
 20
349784.2572000009
 10
109415.9683999996
 20
349784.1911999993
 10
109415.9490999998
 20
349784.1245000009
 10
109415.9321999997
 20
349784.0571999997
 10
109415.9177000001
 20
349783.9893999994
 10
109415.9055000003
 20
349783.9211
 10
109415.8957000002
 20
349783.8523999993
 10
109415.8881999999
 20
349783.7833999991
 10
109415.8832
 20
349783.7141999994
 10
109415.8805999998
 20
349783.6448999998
 10
109415.8804000001
 20
349783.5755000003
 10
109415.8826000001
 20
349783.5061000009
 10
109415.8870999999
 20
349783.4368999992
 10
109415.8941000001
 20
349783.3679000009
 10
109415.9035
 20
349783.2991000004
 10
109415.9153000004
 20
349783.2307999991
 10
109415.9293999998
 20
349783.1627999992
 10
109415.9458999997
 20
349783.0954
 10
109415.9647000003
 20
349783.0285999999
 10
109415.9857999999
 20
349782.9625000004
 10
109416.0091000003
 20
349782.8971999996
 10
109416.0347999995
 20
349782.8326999992
 10
109416.0625999998
 20
349782.7692000009
 10
109416.0926999999
 20
349782.7065999992
 10
109416.1249000001
 20
349782.6451999993
 10
109416.1591999996
 20
349782.5848999993
 10
109416.1956000002
 20
349782.5258000009
 10
109416.2340000002
 20
349782.4680000004
 10
109416.2744000004
 20
349782.4115999993
 10
109416.3167000003
 20
349782.3565999996
 10
109416.3608999997
 20
349782.3030999992
 10
109416.4068999998
 20
349782.2511999999
 10
109416.4546999996
 20
349782.2008999996
 10
109416.5042000003
 20
349782.1523000002
 10
109416.5553999999
 20
349782.1054999997
 10
109416.6081999996
 20
349782.0603999999
 10
109416.6624999996
 20
349782.0172000006
 10
109416.7182
 20
349781.9759
 10
109416.7753999997
 20
349781.9365999997
 10
109416.8339
 20
349781.8992999997
 10
109416.8936999999
 20
349781.8640000001
 10
109416.9545999998
 20
349781.8309000005
 10
109417.0166999996
 20
349781.7997999992
 10
109417.0796999996
 20
349781.7708999999
 10
109417.1437999997
 20
349781.7443000004
 10
109417.2087000003
 20
349781.7199000009
 10
109417.2745000003
 20
349781.6976999994
1001
AcMap_E615D161-C9D7-11d3-839F-0060B0FB6B57
1071
        1
1071
        2
  0
LWPOLYLINE
  5
274
330
1F
100
AcDbEntity
  8
P_SV_SB_FBRD_0
100
AcDbPolyline
 90
       42
 70
     0
 43
0.0
 10
109448.1814999999
 20
349797.2830999997
 10
109448.0300000002
 20
349797.3626000006
 10
109447.8757999995
 20
349797.4367999994
 10
109447.7191000003
 20
349797.5056999997
 10
109447.5602000002
 20
349797.5691999998
 10
109447.3991999999
 20
349797.6272000001
 10
109447.2363
 20
349797.6797000003
 10
109447.0718
 20
349797.7266000007
 10
109446.9057
 20
349797.7677999996
 10
109446.7383000003
 20
349797.8033000008
 10
109446.5697999997
 20
349797.8330000006
 10
109446.4002999998
 20
349797.8570000008
 10
109446.2302000001
 20
349797.8751999997
 10
109446.0595000004
 20
349797.8874999993
 10
109445.8885000003
 20
349797.8939999994
 10
109445.7174000004
 20
349797.8946000003
 10
109445.5462999996
 20
349797.8893999998
 10
109445.3755999999
 20
349797.8783
 10
109445.2052999995
 20
349797.8614000008
 10
109445.0356999999
 20
349797.8386000004
 10
109444.8668999998
 20
349797.8101000004
 10
109444.6993000004
 20
349797.7758000009
 10
109444.5329
 20
349797.7357999999
 10
109444.3679999998
 20
349797.6901999992
 10
109444.2046999996
 20
349797.6389000007
 10
109444.0433
 20
349797.5820000004
 10
109443.8839999996
 20
349797.5197000001
 10
109443.7268000003
 20
349797.4518999998
 10
109443.5721000004
 20
349797.3787999992
 10
109442.3550000004
 20
349796.8000000007
 10
109440.0650000004
 20
349795.7300000005
 10
109437.7699999995
 20
349794.6850000005
 10
109435.4800000004
 20
349793.6500000004
 10
109433.1900000004
 20
349792.6300000008
 10
109430.9100000001
 20
349791.6099999994
 10
109428.625
 20
349790.5899999999
 10
109426.3449999997
 20
349789.5700000003
 10
109424.0599999996
 20
349788.5549999998
 10
109421.7800000002
 20
349787.5350000002
 10
109419.4950000001
 20
349786.5150000006
 10
109417.2099999999
 20
349785.4949999992
 10
109416.9721999997
 20
349785.3885999993
1001
AcMap_E615D161-C9D7-11d3-839F-0060B0FB6B57
1071
        1
1071
        2
  0
LWPOLYLINE
  5
275
330
1F
100
AcDbEntity
  8
P_SV_SB_FBRD_0
100
AcDbPolyline
 90
       36
 70
     0
 43
0.0
 10
109455.8442000002
 20
349803.9019000009
 10
109455.7021000003
 20
349803.8005
 10
109455.5636999998
 20
349803.6941
 10
109455.4291000003
 20
349803.5830000006
 10
109455.2984999995
 20
349803.4671999999
 10
109455.1720000002
 20
349803.3469999992
 10
109455.0497000003
 20
349803.2224000004
 10
109454.9319000002
 20
349803.0935999994
 10
109454.8186999997
 20
349802.9607999995
 10
109454.7100999998
 20
349802.8241000008
 10
109454.6063999999
 20
349802.6837000009
 10
109454.5077
 20
349802.5397999994
 10
109454.4139999999
 20
349802.3925000001
 10
109454.3255000003
 20
349802.2420000006
 10
109454.2423999999
 20
349802.0885000006
 10
109454.1645999998
 20
349801.9322999996
 10
109454.0924000004
 20
349801.7733999994
 10
109454.0257000001
 20
349801.6120999996
 10
109453.9647000003
 20
349801.4485
 10
109453.9095
 20
349801.2829
 10
109453.8600000003
 20
349801.1154999994
 10
109453.8164999997
 20
349800.9464999996
 10
109453.7788000004
 20
349800.7761000004
 10
109453.7472000001
 20
349800.6043999996
 10
109453.7215
 20
349800.4318000004
 10
109453.7018999997
 20
349800.2583000008
 10
109453.6884000003
 20
349800.0843000003
 10
109453.6809
 20
349799.9099000003
 10
109453.6794999996
 20
349799.7354000006
 10
109453.6842999998
 20
349799.5609000009
 10
109453.6951000001
 20
349799.3867000006
 10
109453.7119000005
 20
349799.2129999995
 10
109453.7348999995
 20
349799.0398999993
 10
109453.7637999998
 20
349798.8677999992
 10
109453.7988
 20
349798.6967999992
 10
109453.8397000003
 20
349798.5271000005
1001
AcMap_E615D161-C9D7-11d3-839F-0060B0FB6B57
1071
        1
1071
        2
  0
LWPOLYLINE
  5
276
330
1F
100
AcDbEntity
  8
P_SV_SB_FBRD_0
100
AcDbPolyline
 90
       40
 70
     0
 43
0.0
 10
109471.3191999998
 20
349810.4948999994
 10
109471.3019000003
 20
349810.6678999998
 10
109471.2905999999
 20
349810.8412999995
 10
109471.2852999996
 20
349811.0150000006
 10
109471.2860000003
 20
349811.1886999998
 10
109471.2927999999
 20
349811.3624000009
 10
109471.3055999996
 20
349811.5357000008
 10
109471.3244000002
 20
349811.7083999999
 10
109471.3492999999
 20
349811.8804000001
 10
109471.3799999999
 20
349812.0514000002
 10
109471.4166999999
 20
349812.2213000004
 10
109471.4593000002
 20
349812.3897999991
 10
109471.5077
 20
349812.5567000005
 10
109471.5619000001
 20
349812.7217999995
 10
109471.6217999998
 20
349812.8849
 10
109471.6873000003
 20
349813.0458000004
 10
109471.7583999997
 20
349813.2043999993
 10
109471.8349999999
 20
349813.3604000006
 10
109471.9168999996
 20
349813.5136999991
 10
109472.0040999995
 20
349813.6640000009
 10
109472.0964000001
 20
349813.8112000004
 10
109472.1939000003
 20
349813.9550999999
 10
109472.2961999997
 20
349814.0954999998
 10
109472.4034000002
 20
349814.2323000003
 10
109472.5153000001
 20
349814.3652999998
 10
109472.6316999998
 20
349814.4943000004
 10
109472.7526000002
 20
349814.6191000007
 10
109472.8777000001
 20
349814.7398000006
 10
109473.0069000004
 20
349814.8559000008
 10
109473.1401000004
 20
349814.9675999992
 10
109473.2769999998
 20
349815.0745000001
 10
109473.4176000003
 20
349815.1765999999
 10
109474.9199999999
 20
349816.1500000004
 10
109477.0049999999
 20
349817.4800000005
 10
109479.0949999997
 20
349818.7750000004
 10
109481.2000000002
 20
349820.045
 10
109483.3099999996
 20
349821.2799999993
 10
109485.4400000004
 20
349822.4749999997
 10
109487.5899999998
 20
349823.625
 10
109488.2724000001
 20
349823.9725000002
1001
AcMap_E615D161-C9D7-11d3-839F-0060B0FB6B57
1071
        1
1071
        2
  0
LWPOLYLINE
  5
277
330
1F
100
AcDbEntity
  8
P_SV_SB_FBRD_0
100
AcDbPolyline
 90
       29
 70
     0
 43
0.0
 10
109492.6514999997
 20
349823.9617999998
 10
109492.4984999997
 20
349824.0336000007
 10
109492.3432
 20
349824.1000999995
 10
109492.1857000002
 20
349824.1613999996
 10
109492.0262000002
 20
349824.2172999997
 10
109491.8649000004
 20
349824.2677999995
 10
109491.7019999996
 20
349824.3127999995
 10
109491.5377000002
 20
349824.3522999994
 10
109491.3721000003
 20
349824.3861999996
 10
109491.2055000001
 20
349824.4144000002
 10
109491.0379999997
 20
349824.4371000007
 10
109490.8698000004
 20
349824.454
 10
109490.7012
 20
349824.4652999993
 10
109490.5323
 20
349824.4708999992
 10
109490.3633000003
 20
349824.4706999995
 10
109490.1944000004
 20
349824.4649
 10
109490.0257999999
 20
349824.4532999993
 10
109489.8576999996
 20
349824.4361000006
 10
109489.6902000001
 20
349824.4131000005
 10
109489.5236999998
 20
349824.3846000005
 10
109489.3581999996
 20
349824.3504000008
 10
109489.1939000003
 20
349824.3105999995
 10
109489.0311000003
 20
349824.2653000001
 10
109488.8699000003
 20
349824.2146000006
 10
109488.7105
 20
349824.1583999992
 10
109488.5531000001
 20
349824.0967999995
 10
109488.3979000002
 20
349824.0299999994
 10
109488.2450000001
 20
349823.9580000006
 10
109488.0946000004
 20
349823.8807999995
1001
AcMap_E615D161-C9D7-11d3-839F-0060B0FB6B57
1071
        1
1071
        2
  0
LWPOLYLINE
  5
278
330
1F
100
AcDbEntity
  8
P_SV_SB_FBRD_0
100
AcDbPolyline
 90
      107
 70
     0
 43
0.0
 10
109492.4705999996
 20
349824.0471000001
 10
109499.2580000003
 20
349820.8893
 10
109499.3915999997
 20
349823.6758999992
 10
109499.2997000003
 20
349823.7228999995
 10
109499.2093000002
 20
349823.773
 10
109499.1207999997
 20
349823.8261999991
 10
109499.0341999996
 20
349823.8825000003
 10
109498.9495000001
 20
349823.9416000005
 10
109498.8669999996
 20
349824.0036999993
 10
109498.7866000002
 20
349824.0684999991
 10
109498.7084999997
 20
349824.1360999998
 10
109498.6326999999
 20
349824.2063999996
 10
109498.5595000004
 20
349824.2792000007
 10
109498.4888000004
 20
349824.3544999995
 10
109498.4206999996
 20
349824.4320999999
 10
109498.3552999999
 20
349824.5121
 10
109498.2927000001
 20
349824.5943
 10
109498.233
 20
349824.6785000004
 10
109498.1761999996
 20
349824.7647999991
 10
109498.1224999996
 20
349824.8530000001
 10
109498.0718
 20
349824.943
 10
109498.0241999999
 20
349825.0347000007
 10
109497.9797999998
 20
349825.1279000007
 10
109497.9386
 20
349825.2226999998
 10
109497.9007999999
 20
349825.3187000007
 10
109497.8662
 20
349825.4160999991
 10
109497.8349999999
 20
349825.5145999994
 10
109497.8073000004
 20
349825.6140000001
 10
109497.7829999998
 20
349825.7144000009
 10
109497.7620999999
 20
349825.8156000004
 10
109497.7448000004
 20
349825.9174000006
 10
109497.7308999998
 20
349826.0197999999
 10
109497.7205999996
 20
349826.1225000006
 10
109497.7138
 20
349826.2256000005
 10
109497.7105999999
 20
349826.3288000003
 10
109497.7110000001
 20
349826.4320999999
 10
109497.7149
 20
349826.5352999997
 10
109497.7222999995
 20
349826.6382999998
 10
109497.7333000004
 20
349826.7410000004
 10
109497.7478
 20
349826.8432999998
 10
109497.7659
 20
349826.9450000003
 10
109497.7873999998
 20
349827.0460000001
 10
109497.8124000002
 20
349827.1461999994
 10
109497.8408000003
 20
349827.2455000002
 10
109497.8726000003
 20
349827.3438000009
 10
109497.9078000001
 20
349827.4408999999
 10
109497.9462999999
 20
349827.5368000008
 10
109497.9880999997
 20
349827.6312000007
 10
109498.0330999996
 20
349827.7241999991
 10
109498.0812999997
 20
349827.8155000005
 10
109498.1326000001
 20
349827.9052000009
 10
109498.1869000001
 20
349827.9930000008
 10
109498.2443000003
 20
349828.0789000001
 10
109498.3046000004
 20
349828.1627999992
 10
109498.3677000003
 20
349828.2445
 10
109498.4336000001
 20
349828.3241000008
 10
109498.5022
 20
349828.4013000001
 10
109498.5734000001
 20
349828.4760999997
 10
109498.6470999997
 20
349828.5483999997
 10
109498.7232999997
 20
349828.6181000006
 10
109498.8019000003
 20
349828.6852000002
 10
109498.8826999999
 20
349828.7495000009
 10
109498.9656999996
 20
349828.8110000007
 10
109499.0506999995
 20
349828.8696999997
 10
109499.1376999998
 20
349828.9253000002
 10
109499.2265999997
 20
349828.9779000003
 10
109499.3172000004
 20
349829.0274999999
 10
109499.4095
 20
349829.0737999994
 10
109500.9299999997
 20
349829.6799999997
 10
109503.2249999996
 20
349830.5749999993
 10
109505.5350000001
 20
349831.4450000003
 10
109507.8600000003
 20
349832.3049999997
 10
109510.1950000003
 20
349833.1449999996
 10
109512.54
 20
349833.9800000004
 10
109514.8949999996
 20
349834.8149999995
 10
109517.25
 20
349835.6449999996
 10
109519.6100000003
 20
349836.4800000004
 10
109521.9649999998
 20
349837.3100000006
 10
109524.3250000002
 20
349838.1400000006
 10
109526.6799999997
 20
349838.9749999996
 10
109529.04
 20
349839.8049999997
 10
109531.3949999995
 20
349840.6400000006
 10
109533.7549999999
 20
349841.4700000007
 10
109536.1100000003
 20
349842.3049999998
 10
109538.4649999998
 20
349843.1349999998
 10
109540.8250000002
 20
349843.9700000007
 10
109543.1799999997
 20
349844.8000000008
 10
109545.54
 20
349845.6349999998
 10
109547.8949999995
 20
349846.4649999999
 10
109550.2549999999
 20
349847.3000000008
 10
109552.6100000003
 20
349848.1300000008
 10
109554.9699999997
 20
349848.9649999998
 10
109557.3250000002
 20
349849.7949999999
 10
109559.6849999996
 20
349850.6300000008
 10
109562.04
 20
349851.4600000009
 10
109564.4000000004
 20
349852.295
 10
109566.7549999999
 20
349853.125
 10
109569.1150000002
 20
349853.960000001
 10
109571.4699999997
 20
349854.7899999991
 10
109573.8250000002
 20
349855.625
 10
109576.1849999996
 20
349856.4550000001
 10
109578.5599999996
 20
349857.3000000007
 10
109580.9500000002
 20
349858.1799999997
 10
109583.3449999997
 20
349859.1099999995
 10
109585.7450000001
 20
349860.1150000002
 10
109588.1299999999
 20
349861.2100000009
 10
109589.3613999998
 20
349861.8440000005
1001
AcMap_E615D161-C9D7-11d3-839F-0060B0FB6B57
1071
        1
1071
        2
  0
LWPOLYLINE
  5
279
330
1F
100
AcDbEntity
  8
P_SV_SB_FBRD_0
100
AcDbPolyline
 90
       91
 70
     0
 43
0.0
 10
109484.7187000001
 20
349829.4594000001
 10
109484.8726000003
 20
349829.5373
 10
109485.0237999996
 20
349829.6205000002
 10
109485.1719000004
 20
349829.7089000009
 10
109485.3169999998
 20
349829.8023000006
 10
109485.4587000003
 20
349829.9006999992
 10
109485.5970000001
 20
349830.0039000009
 10
109485.7315999996
 20
349830.1118
 10
109485.8624
 20
349830.2243000008
 10
109485.9891999997
 20
349830.3412999995
 10
109486.1119999997
 20
349830.4625000004
 10
109486.2303999998
 20
349830.5878999997
 10
109486.3444999996
 20
349830.7173999995
 10
109486.4540999997
 20
349830.8507000003
 10
109486.5588999996
 20
349830.9876000006
 10
109486.659
 20
349831.1282000002
 10
109486.7542000003
 20
349831.2719999999
 10
109486.8443999998
 20
349831.4190999996
 10
109486.9293999998
 20
349831.5691999998
 10
109487.0093
 20
349831.7222000006
 10
109487.0837000003
 20
349831.8778000009
 10
109487.1528000003
 20
349832.0359000005
 10
109487.2164000002
 20
349832.1962999999
 10
109487.2744000005
 20
349832.3587999996
 10
109487.3267999999
 20
349832.5231999997
 10
109487.3733999999
 20
349832.6893000007
 10
109487.4143000003
 20
349832.8568999991
 10
109487.4494000003
 20
349833.0258000009
 10
109487.4786999998
 20
349833.1958000008
 10
109487.5020000003
 20
349833.366800001
 10
109487.5195000004
 20
349833.5384
 10
109487.5310000004
 20
349833.7105000001
 10
109487.5366000002
 20
349833.8829999994
 10
109487.5362
 20
349834.0555000007
 10
109487.5299000004
 20
349834.2279000003
 10
109487.5175999999
 20
349834.4000000004
 10
109487.4994000001
 20
349834.5715999994
 10
109487.4753
 20
349834.7423999998
 10
109487.4452999998
 20
349834.9123
 10
109487.4095
 20
349835.0811000001
 10
109487.3678999999
 20
349835.2485000007
 10
109487.3205000004
 20
349835.4144000002
 10
109487.2674000002
 20
349835.5785000008
 10
109487.2087000003
 20
349835.7408000007
 10
109487.1443999996
 20
349835.9009000007
 10
109487.0746999998
 20
349836.0587000009
 10
109489.7977999998
 20
349837.3191
 10
109489.8737000003
 20
349837.1622000001
 10
109489.9550999999
 20
349837.0080999993
 10
109490.0417999998
 20
349836.8567999993
 10
109490.1337999999
 20
349836.7086999994
 10
109490.2308
 20
349836.5638999995
 10
109490.3328
 20
349836.4225999992
 10
109490.4397
 20
349836.2849000004
 10
109490.5514000002
 20
349836.1510000006
 10
109490.6676000003
 20
349836.0210999996
 10
109490.7883000001
 20
349835.895300001
 10
109490.9133000001
 20
349835.7738000006
 10
109491.0423999997
 20
349835.6567000002
 10
109491.1755999997
 20
349835.5442999993
 10
109491.3125999998
 20
349835.4364999999
 10
109491.4533000002
 20
349835.3334999997
 10
109491.5975000001
 20
349835.2355000005
 10
109491.7450000001
 20
349835.1426999998
 10
109491.8956000004
 20
349835.0549999997
 10
109492.0492000002
 20
349834.9726
 10
109492.2056
 20
349834.8956000004
 10
109492.3646
 20
349834.8241000008
 10
109492.5259999996
 20
349834.7581999991
 10
109492.6896000001
 20
349834.6980000008
 10
109492.8552000001
 20
349834.6435000003
 10
109493.0225999998
 20
349834.5947999992
 10
109493.1914999997
 20
349834.5519999992
 10
109493.3618999999
 20
349834.5150000006
 10
109493.5334
 20
349834.4840999991
 10
109493.7060000002
 20
349834.4591000006
 10
109493.8793000001
 20
349834.4401999992
 10
109494.0531000001
 20
349834.4274000004
 10
109494.2273000004
 20
349834.4206000008
 10
109494.4016000004
 20
349834.4198000003
 10
109494.5757999997
 20
349834.4252000004
 10
109494.7498000003
 20
349834.4365999997
 10
109494.9232000001
 20
349834.4540999998
 10
109495.0959999999
 20
349834.4776000009
 10
109495.2677999995
 20
349834.5070999992
 10
109495.4384000003
 20
349834.5426000003
 10
109495.6076999996
 20
349834.5840000008
 10
109495.7755000004
 20
349834.6313000005
 10
109495.9415999995
 20
349834.6843999997
 10
109496.1056000004
 20
349834.7433000002
 10
109496.2675999999
 20
349834.8079000004
1001
AcMap_E615D161-C9D7-11d3-839F-0060B0FB6B57
1071
        1
1071
        2
  0
LWPOLYLINE
  5
27A
330
1F
100
AcDbEntity
  8
P_SV_SB_FBRD_0
100
AcDbPolyline
 90
       35
 70
     0
 43
0.0
 10
109589.1838999996
 20
349861.7518000007
 10
109589.3949999995
 20
349861.8597
 10
109589.6096000001
 20
349861.9605
 10
109589.8276000004
 20
349862.0538999997
 10
109590.0484999996
 20
349862.1399000008
 10
109590.2723000003
 20
349862.2183999997
 10
109590.4985999996
 20
349862.2893000003
 10
109590.7270999998
 20
349862.3523999993
 10
109590.9577000001
 20
349862.4078000002
 10
109591.1900000004
 20
349862.4552999995
 10
109591.4237000001
 20
349862.4948999994
 10
109591.6586999996
 20
349862.5265999996
 10
109591.8947000001
 20
349862.5503000003
 10
109592.1311999997
 20
349862.5659999997
 10
109592.3682000004
 20
349862.5736999996
 10
109592.6052999999
 20
349862.5734000002
 10
109592.8422999997
 20
349862.5649999995
 10
109593.0789000001
 20
349862.5485999994
 10
109593.3147
 20
349862.5241999999
 10
109593.5495999995
 20
349862.491800001
 10
109596.1108999997
 20
349862.3099000008
 10
109596.3230999997
 20
349862.3059000001
 10
109596.625
 20
349862.3098000009
 10
109596.9266999997
 20
349862.3241000008
 10
109597.2284000003
 20
349862.3472000007
 10
109597.5299000004
 20
349862.3775999993
 10
109598.1330000004
 20
349862.4548000004
 10
109598.7358999997
 20
349862.5437000003
 10
109599.8332000002
 20
349862.7991000005
 10
109600.8975999998
 20
349863.1684000008
 10
109601.4888000004
 20
349863.4322999996
 10
109601.8483999995
 20
349863.6205000002
 10
109602.3340999996
 20
349863.8845000006
 10
109602.4804999996
 20
349863.9657000005
 10
109602.6221000003
 20
349864.0441999994
1001
AcMap_E615D161-C9D7-11d3-839F-0060B0FB6B57
1071
        1
1071
        2
  0
LWPOLYLINE
  5
27B
330
1F
100
AcDbEntity
  8
P_SV_SB_FBRD_0
100
AcDbPolyline
 90
       96
 70
     0
 43
0.0
 10
109596.2314999997
 20
349866.1503999997
 10
109596.2022000001
 20
349866.1316
 10
109596.1736000003
 20
349866.1118000001
 10
109596.1457000002
 20
349866.0910999999
 10
109596.1184999999
 20
349866.0693999994
 10
109596.0921
 20
349866.0467000008
 10
109596.0664999997
 20
349866.0231999997
 10
109596.0417999997
 20
349865.9988000002
 10
109596.0179000003
 20
349865.9735000003
 10
109595.9949000003
 20
349865.9474
 10
109595.9727999996
 20
349865.9204999991
 10
109595.9517000001
 20
349865.8928999994
 10
109595.9314999999
 20
349865.8646000009
 10
109595.9123999998
 20
349865.8355999999
 10
109595.8942
 20
349865.8059
 10
109595.8771000002
 20
349865.7755999994
 10
109595.8611000003
 20
349865.7446999998
 10
109595.8461999996
 20
349865.7133000009
 10
109595.8322999999
 20
349865.6813999992
 10
109595.8196
 20
349865.6491000001
 10
109595.8080000002
 20
349865.6162999999
 10
109595.7975000003
 20
349865.5831000004
 10
109595.7882000003
 20
349865.5495999996
 10
109595.7801000001
 20
349865.5157999993
 10
109595.7731999997
 20
349865.4816999994
 10
109595.7674000002
 20
349865.4474
 10
109595.7629000004
 20
349865.4130000006
 10
109595.7594999997
 20
349865.3783
 10
109595.7573999995
 20
349865.3435999994
 10
109595.7564000003
 20
349865.3089000006
 10
109595.7566999998
 20
349865.2741000001
 10
109595.7582
 20
349865.2393999994
 10
109595.7609000001
 20
349865.2047000006
 10
109595.7648
 20
349865.1700999998
 10
109595.7697999999
 20
349865.1357000005
 10
109595.7761000003
 20
349865.1015000008
 10
109595.7835999997
 20
349865.0676000007
 10
109595.7922
 20
349865.0339000002
 10
109595.8020000001
 20
349865.0004999992
 10
109595.8130000001
 20
349864.9674999994
 10
109595.8251
 20
349864.9349000007
 10
109595.8382999999
 20
349864.9027999994
 10
109595.8526999997
 20
349864.8710999992
 10
109595.8680999996
 20
349864.8399
 10
109595.8846000004
 20
349864.8092999999
 10
109595.9022000003
 20
349864.7793000006
 10
109595.9208000004
 20
349864.7499000002
 10
109595.9403999997
 20
349864.7212000005
 10
109595.9610000001
 20
349864.6931999996
 10
109595.9824999999
 20
349864.6658999994
 10
109596.0049999999
 20
349864.6393999998
 10
109596.0284000002
 20
349864.6136000008
 10
109596.0526999999
 20
349864.5887000002
 10
109596.0778000001
 20
349864.5647
 10
109596.1037999997
 20
349864.5415000003
 10
109596.1305
 20
349864.5193000008
 10
109596.1579999998
 20
349864.4979999997
 10
109596.1862000003
 20
349864.4777000006
 10
109596.2150999997
 20
349864.4583999999
 10
109596.2446999997
 20
349864.4400999994
 10
109596.2748999996
 20
349864.4228000008
 10
109596.3057000004
 20
349864.4066000004
 10
109596.3370000003
 20
349864.3914000001
 10
109596.3688000003
 20
349864.3773999996
 10
109596.4011000003
 20
349864.3644999992
 10
109596.4337999998
 20
349864.3527000007
 10
109596.4669000003
 20
349864.3421000001
 10
109596.5003000004
 20
349864.3325999994
 10
109596.5340999998
 20
349864.3243000004
 10
109596.5680999998
 20
349864.3170999996
 10
109596.6024000002
 20
349864.3112000003
 10
109596.6369000002
 20
349864.3063999992
 10
109596.6714000003
 20
349864.3028999996
 10
109596.7061
 20
349864.3004999999
 10
109596.7408999996
 20
349864.2993999999
 10
109596.7757000001
 20
349864.2993999999
 10
109596.8103999998
 20
349864.3006999996
 10
109596.8450999996
 20
349864.3032000009
 10
109597.5959000001
 20
349864.3967000004
 10
109598.3398000002
 20
349864.5103999991
 10
109598.5239000004
 20
349864.5443999991
 10
109598.7071000002
 20
349864.5811999999
 10
109598.8892000001
 20
349864.6213000007
 10
109599.0701000001
 20
349864.6647999995
 10
109599.2498000003
 20
349864.7120999992
 10
109599.4280000003
 20
349864.7634999995
 10
109599.6047999998
 20
349864.8193999995
 10
109599.7800000002
 20
349864.8800000009
 10
109599.9009999996
 20
349864.9252000004
 10
109600.0213000001
 20
349864.9726
 10
109600.1408000002
 20
349865.0222999994
 10
109600.2597000003
 20
349865.0738999993
 10
109600.4956
 20
349865.1824999992
 10
109600.7295000003
 20
349865.2972999998
 10
109601.1925999997
 20
349865.5404000003
 10
109601.6524999998
 20
349865.7934000008
1001
AcMap_E615D161-C9D7-11d3-839F-0060B0FB6B57
1071
        1
1071
        2
  0
LWPOLYLINE
  5
27C
330
1F
100
AcDbEntity
  8
P_SV_SB_FBRD_0
100
AcDbPolyline
 90
       24
 70
     0
 43
0.0
 10
109605.4326999998
 20
349927.5203000009
 10
109605.4930999996
 20
349928.2228999995
 10
109605.7581000002
 20
349930.7729000002
 10
109606.0730999997
 20
349933.3179000001
 10
109606.4430999998
 20
349935.8578999993
 10
109606.8630999997
 20
349938.3879000005
 10
109607.3331000004
 20
349940.9079
 10
109607.8530999999
 20
349943.4178999998
 10
109608.4231000002
 20
349945.9229000006
 10
109608.4617999997
 20
349946.0930000004
 10
109609.0829999996
 20
349948.5829000008
 10
109609.7543000001
 20
349951.0677000005
 10
109610.4758000001
 20
349953.5377999992
 10
109611.2577999998
 20
349956.0041000005
 10
109612.1205000002
 20
349958.4667000007
 10
109613.0738000003
 20
349960.9151000008
 10
109614.1278999997
 20
349963.3445999995
 10
109615.2928999997
 20
349965.7348999996
 10
109616.5788000002
 20
349968.0806000009
 10
109617.9803999997
 20
349970.3615000006
 10
109619.4974999996
 20
349972.5617999994
 10
109621.1200999999
 20
349974.6917000003
 10
109622.8481999999
 20
349976.7313000001
 10
109623.6941999998
 20
349977.6353999991
1001
AcMap_E615D161-C9D7-11d3-839F-0060B0FB6B57
1071
        1
1071
        2
  0
LWPOLYLINE
  5
27D
330
1F
100
AcDbEntity
  8
P_SV_SB_FBRD_0
100
AcDbPolyline
 90
       21
 70
     0
 43
0.0
 10
109605.1721000001
 20
349904.9006999992
 10
109605.1714000003
 20
349905.4213999995
 10
109605.1525999997
 20
349905.9417000003
 10
109605.1157999998
 20
349906.4609999992
 10
109605.0608999999
 20
349906.9788000007
 10
109604.9881999995
 20
349907.4943000004
 10
109604.8974999999
 20
349908.0069999993
 10
109604.7892000004
 20
349908.5163000003
 10
109604.6632000003
 20
349909.0214000009
 10
109604.5197999999
 20
349909.5219000001
 10
109604.3591
 20
349910.0172000006
 10
109604.1813000003
 20
349910.5065000001
 10
109603.9866000004
 20
349910.9893999994
 10
109603.7752999998
 20
349911.4651999995
 10
109603.5476000001
 20
349911.9334999994
 10
109603.3037999998
 20
349912.3935000002
 10
109603.0442000003
 20
349912.8447999992
 10
109602.7691000001
 20
349913.2868000008
 10
109602.4787999997
 20
349913.7190000006
 10
109602.1736000003
 20
349914.1409000009
 10
109601.8540000003
 20
349914.5518999994
1001
AcMap_E615D161-C9D7-11d3-839F-0060B0FB6B57
1071
        1
1071
        2
  0
LWPOLYLINE
  5
27E
330
1F
100
AcDbEntity
  8
P_SV_SB_FBRD_0
100
AcDbPolyline
 90
       34
 70
     0
 43
0.0
 10
109633.5032000001
 20
349989.0764000006
 10
109633.6420999998
 20
349988.9776000009
 10
109633.7844000002
 20
349988.8837000002
 10
109633.9298
 20
349988.7946000006
 10
109634.0780999996
 20
349988.7105000001
 10
109634.2291999999
 20
349988.6315000001
 10
109634.3830000004
 20
349988.5578000006
 10
109634.5390999997
 20
349988.4892999996
 10
109634.6974999998
 20
349988.4262000006
 10
109634.858
 20
349988.3684999999
 10
109635.0203
 20
349988.3162999991
 10
109635.1842999998
 20
349988.2697000001
 10
109635.3498
 20
349988.2287000009
 10
109635.5165999997
 20
349988.1933999994
 10
109635.6845000004
 20
349988.1636999995
 10
109635.8534000003
 20
349988.1399000008
 10
109636.0229000002
 20
349988.1217
 10
109636.193
 20
349988.1094000004
 10
109636.3633000003
 20
349988.1029000003
 10
109636.5338000003
 20
349988.1021999996
 10
109636.7043000003
 20
349988.1073000003
 10
109636.8744000001
 20
349988.1183000002
 10
109637.0440999996
 20
349988.1349999998
 10
109637.2131000003
 20
349988.1575000007
 10
109637.3812999995
 20
349988.1856999993
 10
109637.5483999997
 20
349988.2196999993
 10
109637.7142000003
 20
349988.2592999991
 10
109637.8786000004
 20
349988.3046000004
 10
109638.0412999997
 20
349988.3554999996
 10
109638.2023
 20
349988.4118000009
 10
109638.3612000001
 20
349988.4736000002
 10
109638.5179000003
 20
349988.5408999995
 10
109638.6721999999
 20
349988.6133999993
 10
109638.8239000002
 20
349988.6910999995
1001
AcMap_E615D161-C9D7-11d3-839F-0060B0FB6B57
1071
        1
1071
        2
  0
LWPOLYLINE
  5
27F
330
1F
100
AcDbEntity
  8
P_SV_SB_FBRD_0
100
AcDbPolyline
 90
      118
 70
     0
 43
0.0
 10
109926.1547999996
 20
350181.8991999999
 10
109926.1100000003
 20
350181.7317999993
 10
109926.0708999997
 20
350181.5629999992
 10
109926.0378
 20
350181.3928999994
 10
109926.0104999999
 20
350181.2216999997
 10
109925.9891999997
 20
350181.0497999993
 10
109925.9738999996
 20
350180.8772
 10
109925.9644999998
 20
350180.7040999998
 10
109925.9611999998
 20
350180.5308999997
 10
109925.9638999998
 20
350180.3575999998
 10
109925.9725000001
 20
350180.1844999995
 10
109925.9872000003
 20
350180.0119000003
 10
109926.0077999998
 20
350179.8398000002
 10
109926.0344000002
 20
350179.6686000004
 10
109926.0669
 20
350179.4984000009
 10
109926.1052999999
 20
350179.3293999992
 10
109926.1495000003
 20
350179.1618000009
 10
109926.1995000001
 20
350178.9958999996
 10
109926.2551999995
 20
350178.8318000008
 10
109926.3165999995
 20
350178.6698000003
 10
109926.3835000004
 20
350178.5099
 10
109926.4560000002
 20
350178.3524999992
 10
109926.5338000003
 20
350178.1976999995
 10
109926.6169999996
 20
350178.0457000006
 10
109926.7054000003
 20
350177.8966000006
 10
109926.7988999998
 20
350177.7507000007
 10
109926.8974000001
 20
350177.6082000006
 10
109927.0006999997
 20
350177.4691000004
 10
109927.1089000003
 20
350177.3336999994
 10
109927.2216999996
 20
350177.2020999994
 10
109927.3388999998
 20
350177.0745000001
 10
109927.4605
 20
350176.9510999993
 10
109927.5862999996
 20
350176.8319000006
 10
109927.7161999997
 20
350176.7171999999
 10
109927.8499999996
 20
350176.6070000008
 10
109927.9874999998
 20
350176.5015999992
 10
109928.1284999996
 20
350176.4009000007
 10
109928.273
 20
350176.3051999994
 10
109928.4206999997
 20
350176.2146000006
 10
109928.5714999996
 20
350176.1292000003
 10
109928.7251000004
 20
350176.0490000006
 10
109928.8814000003
 20
350175.9741999992
 10
109929.0401999997
 20
350175.9048999995
 10
109929.2012999998
 20
350175.8410999999
 10
109929.3646
 20
350175.7829000001
 10
109929.5296999998
 20
350175.7303999998
 10
109929.6966000004
 20
350175.6837000009
 10
109929.8650000002
 20
350175.6427999996
 10
109930.0346999997
 20
350175.6076999996
 10
109930.2055000001
 20
350175.5786000006
 10
109930.3772
 20
350175.5552999992
 10
109930.5495999995
 20
350175.5381000005
 10
109930.7226
 20
350175.5267999992
 10
109930.8958
 20
350175.5216000006
 10
109931.0690000001
 20
350175.5222999994
 10
109931.2422000002
 20
350175.5289999992
 10
109931.415
 20
350175.5417999998
 10
109931.5872999998
 20
350175.5604999997
 10
109931.7587999999
 20
350175.5852000006
 10
109931.9293999998
 20
350175.6158000008
 10
109932.0987999998
 20
350175.6523000003
 10
109932.2668000003
 20
350175.6945999991
 10
109932.4332999997
 20
350175.7426999994
 10
109932.5980000002
 20
350175.7965999991
 10
109932.7607000004
 20
350175.8562000003
 10
109932.9212999996
 20
350175.9212999996
 10
109933.0795
 20
350175.9920000006
 10
109933.2352
 20
350176.0680999999
 10
109933.3881000001
 20
350176.1495999992
 10
109934.4002999998
 20
350176.6842000001
 10
109936.7452999996
 20
350177.8291999996
 10
109939.1253000004
 20
350178.894200001
 10
109941.5403000004
 20
350179.8741999996
 10
109943.9902999997
 20
350180.7792000007
 10
109946.4653000002
 20
350181.6042
 10
109948.9653000003
 20
350182.3391999994
 10
109951.4902999997
 20
350182.9942000006
 10
109954.0352999996
 20
350183.5642000009
 10
109956.5953000001
 20
350184.0492000003
 10
109959.1502999998
 20
350184.4592000004
 10
109961.7052999995
 20
350184.7992000003
 10
109964.2553000003
 20
350185.0791999996
 10
109966.8003000002
 20
350185.3092000001
 10
109967.0499
 20
350185.3289999999
 10
109969.3317
 20
350185.5092999991
 10
109971.8541000001
 20
350185.6795000005
 10
109974.3652999997
 20
350185.8296000007
 10
109976.8651999999
 20
350185.9746000003
 10
109979.3497000001
 20
350186.1245000009
 10
109981.8284
 20
350186.2794000004
 10
109984.2910000002
 20
350186.4542999995
 10
109986.7380999997
 20
350186.6539999992
 10
109989.1744999997
 20
350186.8837000002
 10
109991.5999999996
 20
350187.1532000006
 10
109994.0047000004
 20
350187.4674999994
 10
109996.3886000002
 20
350187.8366000001
 10
109998.7571
 20
350188.2653999999
 10
110001.1102
 20
350188.7589999996
 10
110003.4435
 20
350189.3172999994
 10
110005.7668000003
 20
350189.9406000003
 10
110008.0700000003
 20
350190.6284999997
 10
110010.3485000003
 20
350191.3814000003
 10
110012.6120999995
 20
350192.1941
 10
110014.8504999997
 20
350193.0714999996
 10
110017.0592
 20
350194.0088
 10
110019.2428999999
 20
350195.0058999993
 10
110021.4016000004
 20
350196.0678000003
 10
110023.5255000004
 20
350197.1845999994
 10
110025.6244999999
 20
350198.3662000001
 10
110027.6834000004
 20
350199.5976
 10
110029.7074999995
 20
350200.8937999998
 10
110031.6969999997
 20
350202.2401000001
 10
110033.6463999999
 20
350203.6410000008
 10
110035.5607000002
 20
350205.0967999995
 10
110037.4302000003
 20
350206.6073000003
 10
110039.2549999999
 20
350208.1678
 10
110041.0398000004
 20
350209.7782000006
 10
110042.1331000002
 20
350210.8243000005
1001
AcMap_E615D161-C9D7-11d3-839F-0060B0FB6B57
1071
        1
1071
        2
  0
LWPOLYLINE
  5
280
330
1F
100
AcDbEntity
  8
P_SV_SB_FBRD_0
100
AcDbPolyline
 90
        3
 70
     0
 43
0.0
 10
109914.2099000001
 20
350163.0966999996
 10
109918.0804000003
 20
350171.9223999996
 10
109921.6654000003
 20
350180.4028999992
1001
AcMap_E615D161-C9D7-11d3-839F-0060B0FB6B57
1071
        1
1071
        2
  0
LWPOLYLINE
  5
281
330
1F
100
AcDbEntity
  8
P_SV_SB_FBRD_0
100
AcDbPolyline
 90
       35
 70
     0
 43
0.0
 10
109906.5948999999
 20
350144.4033000004
 10
109906.3245000001
 20
350144.0931000002
 10
109906.0648999996
 20
350143.7739000004
 10
109905.8164999997
 20
350143.4459000007
 10
109905.5794000001
 20
350143.1096000001
 10
109905.3539000004
 20
350142.7653000001
 10
109905.1403999999
 20
350142.4135999997
 10
109904.9391000001
 20
350142.0547000002
 10
109904.7501999996
 20
350141.6892000009
 10
109904.574
 20
350141.3172999993
 10
109904.4106
 20
350140.9397
 10
109904.2603000002
 20
350140.5567000006
 10
109904.1231000004
 20
350140.1687000003
 10
109903.9994000001
 20
350139.7763000001
 10
109903.8892000001
 20
350139.3798999992
 10
109903.7926000002
 20
350138.9799000006
 10
109903.7098000003
 20
350138.5768
 10
109903.6409
 20
350138.1710999999
 10
109903.5859000003
 20
350137.7633999996
 10
109903.5449999999
 20
350137.3539000005
 10
109903.5181
 20
350136.9432999995
 10
109903.5053000003
 20
350136.5320999995
 10
109903.5065999999
 20
350136.1206000001
 10
109903.5219999999
 20
350135.7094000001
 10
109903.5515
 20
350135.2990000006
 10
109903.5949999997
 20
350134.8897999991
 10
109903.6525999997
 20
350134.4824000001
 10
109903.7241000002
 20
350134.0771999993
 10
109903.8093999997
 20
350133.6745999996
 10
109903.9084999999
 20
350133.2752999999
 10
109904.0212000003
 20
350132.8794999999
 10
109904.1474000001
 20
350132.4879000001
 10
109904.2869999995
 20
350132.1008000001
 10
109904.4397999998
 20
350131.7188000009
 10
109904.6054999996
 20
350131.3421999999
1001
AcMap_E615D161-C9D7-11d3-839F-0060B0FB6B57
1071
        1
1071
        2
  0
LWPOLYLINE
  5
282
330
1F
100
AcDbEntity
  8
P_SV_SB_FBRD_0
100
AcDbPolyline
 90
       35
 70
     0
 43
0.0
 10
109907.7085999995
 20
350143.3983999994
 10
109907.4718000004
 20
350143.1268000007
 10
109907.2445
 20
350142.8473000005
 10
109907.0269999997
 20
350142.5601000004
 10
109906.8194000004
 20
350142.2655999996
 10
109906.6220000004
 20
350141.9640999996
 10
109906.4351000003
 20
350141.6560999994
 10
109906.2588999998
 20
350141.3419000004
 10
109906.0936000002
 20
350141.0217000004
 10
109905.9392999997
 20
350140.6961000003
 10
109905.7962999996
 20
350140.3653999996
 10
109905.6648000004
 20
350140.0299999993
 10
109905.5448000002
 20
350139.6903000009
 10
109905.4365999996
 20
350139.3466999997
 10
109905.3402000004
 20
350138.9995000009
 10
109905.2556999996
 20
350138.6491999999
 10
109905.1834000004
 20
350138.2962999996
 10
109905.1232000002
 20
350137.9410999995
 10
109905.0751999998
 20
350137.5840000007
 10
109905.0394999999
 20
350137.2255000007
 10
109905.0160999996
 20
350136.8659000006
 10
109905.0049999999
 20
350136.5057999995
 10
109905.0064000003
 20
350136.1455000006
 10
109905.0201000003
 20
350135.7854999993
 10
109905.0460999999
 20
350135.4261000007
 10
109905.0844
 20
350135.0679000001
 10
109905.1349999998
 20
350134.7112000008
 10
109905.1979
 20
350134.3564
 10
109905.2728000004
 20
350134.0040000007
 10
109905.3597999997
 20
350133.6544000004
 10
109905.4587000003
 20
350133.3079000004
 10
109905.5695000002
 20
350132.9650999997
 10
109905.6919999998
 20
350132.6261999999
 10
109905.8260000003
 20
350132.2917999998
 10
109905.9714000001
 20
350131.9622000009
1001
AcMap_E615D161-C9D7-11d3-839F-0060B0FB6B57
1071
        1
1071
        2
  0
LWPOLYLINE
  5
283
330
1F
100
AcDbEntity
  8
P_SV_SB_FBRD_0
100
AcDbPolyline
 90
       74
 70
     0
 43
0.0
 10
109906.5851999996
 20
350144.3934000004
 10
109922.0614999998
 20
350160.1642000005
 10
109923.4599999999
 20
350161.3849999998
 10
109925.3099999996
 20
350162.9049999993
 10
109927.2099999999
 20
350164.3599999994
 10
109929.1550000002
 20
350165.75
 10
109931.1449999995
 20
350167.0749999993
 10
109933.1799999997
 20
350168.3300000002
 10
109935.2549999999
 20
350169.5199999995
 10
109937.3700000001
 20
350170.6400000006
 10
109939.5199999995
 20
350171.6899999995
 10
109941.7000000002
 20
350172.6649999991
 10
109943.915
 20
350173.5700000003
 10
109946.1600000001
 20
350174.3949999996
 10
109948.4299999997
 20
350175.1500000004
 10
109950.7199999997
 20
350175.8300000001
 10
109953.0350000001
 20
350176.4299999997
 10
109955.3700000001
 20
350176.9499999993
 10
109957.7249999996
 20
350177.4000000004
 10
109960.1050000004
 20
350177.7750000004
 10
109962.5049999999
 20
350178.0950000007
 10
109964.9249999998
 20
350178.3599999994
 10
109967.3650000002
 20
350178.5850000009
 10
109969.8150000004
 20
350178.7750000004
 10
109972.2850000001
 20
350178.9399999995
 10
109974.7649999996
 20
350179.0899999999
 10
109977.2599999998
 20
350179.2349999995
 10
109979.7599999998
 20
350179.3849999998
 10
109982.2750000003
 20
350179.5449999999
 10
109984.7999999998
 20
350179.7249999996
 10
109987.3300000001
 20
350179.9299999997
 10
109989.8650000002
 20
350180.17
 10
109992.4100000001
 20
350180.4499999993
 10
109994.955
 20
350180.7850000002
 10
109997.5049999999
 20
350181.1799999997
 10
110000.0499999998
 20
350181.6400000006
 10
110002.5849999999
 20
350182.1750000008
 10
110005.1050000004
 20
350182.7750000004
 10
110007.6050000004
 20
350183.4450000004
 10
110010.0899999998
 20
350184.1899999995
 10
110012.5499999998
 20
350184.9949999992
 10
110014.9850000003
 20
350185.875
 10
110017.4000000003
 20
350186.8200000004
 10
110019.7800000002
 20
350187.8300000001
 10
110022.1399999997
 20
350188.9100000002
 10
110024.4599999999
 20
350190.0500000008
 10
110026.7549999999
 20
350191.2550000009
 10
110029.0099999998
 20
350192.5250000004
 10
110031.2350000003
 20
350193.8599999994
 10
110033.415
 20
350195.25
 10
110035.5599999996
 20
350196.7050000001
 10
110037.665
 20
350198.2149999999
 10
110039.7249999996
 20
350199.7850000002
 10
110041.7400000002
 20
350201.4149999991
 10
110043.7099999999
 20
350203.0950000007
 10
110045.6299999999
 20
350204.8300000001
 10
110047.5049999999
 20
350206.6199999992
 10
110049.3300000001
 20
350208.4649999999
 10
110051.1100000003
 20
350210.3800000008
 10
110052.8250000002
 20
350212.3699999992
 10
110054.4649999998
 20
350214.4450000003
 10
110056.0149999997
 20
350216.6050000005
 10
110057.4599999999
 20
350218.8599999995
 10
110058.7850000001
 20
350221.2100000009
 10
110059.9599999999
 20
350223.6400000006
 10
110060.9850000003
 20
350226.1449999996
 10
110061.8499999996
 20
350228.7050000001
 10
110062.5549999997
 20
350231.3100000006
 10
110063.0949999997
 20
350233.9600000009
 10
110063.4649999998
 20
350236.6400000006
 10
110063.6699999999
 20
350239.3300000001
 10
110063.7099999999
 20
350242.0350000002
 10
110063.5750000002
 20
350244.7300000004
 10
110063.3618
 20
350246.7479999997
1001
AcMap_E615D161-C9D7-11d3-839F-0060B0FB6B57
1071
        1
1071
        2
  0
LINE
  5
284
330
1F
100
AcDbEntity
  8
P_SV_SB_FBRD_0
100
AcDbLine
 10
109907.6546
 20
350143.3439000007
 30
0.0
 11
109918.1705
 21
350154.0600000005
 31
0.0
1001
AcMap_E615D161-C9D7-11d3-839F-0060B0FB6B57
1071
        1
1071
        2
  0
LINE
  5
285
330
1F
100
AcDbEntity
  8
P_SV_SB_FBRD_0
100
AcDbLine
 10
109917.0998999998
 20
350155.1106000003
 30
0.0
 11
109918.1705999998
 21
350154.0601000004
 31
0.0
1001
AcMap_E615D161-C9D7-11d3-839F-0060B0FB6B57
1071
        1
1071
        2
  0
LINE
  5
286
330
1F
100
AcDbEntity
  8
P_SV_SB_FBRD_0
100
AcDbLine
 10
110065.6487999996
 20
350251.1871000007
 30
0.0
 11
110069.8454
 21
350249.7679999993
 31
0.0
1001
AcMap_E615D161-C9D7-11d3-839F-0060B0FB6B57
1071
        1
1071
        2
  0
LINE
  5
287
330
1F
100
AcDbEntity
  8
P_SV_SB_FBRD_0
100
AcDbLine
 10
110064.5338000003
 20
350247.7528000009
 30
0.0
 11
110068.6889000004
 21
350246.3477999997
 31
0.0
1001
AcMap_E615D161-C9D7-11d3-839F-0060B0FB6B57
1071
        1
1071
        2
  0
LWPOLYLINE
  5
288
330
1F
100
AcDbEntity
  8
P_SV_SB_FBRD_0
100
AcDbPolyline
 90
       63
 70
     0
 43
0.0
 10
110064.7230000002
 20
350247.6879999992
 10
110064.6904999996
 20
350247.6997999996
 10
110064.6577000003
 20
350247.7104000003
 10
110064.6244999999
 20
350247.7197999992
 10
110064.591
 20
350247.7281999998
 10
110064.5571999997
 20
350247.7353000008
 10
110064.5231999997
 20
350247.7412999999
 10
110064.489
 20
350247.7460999992
 10
110064.4546999996
 20
350247.7498000004
 10
110064.4203000003
 20
350247.7522
 10
110064.3858000003
 20
350247.7534999997
 10
110064.3513000002
 20
350247.7534999997
 10
110064.3168000001
 20
350247.7523999997
 10
110064.2823000001
 20
350247.7500999999
 10
110064.2479999996
 20
350247.7466000002
 10
110064.2138
 20
350247.7419000007
 10
110064.1798
 20
350247.7359999996
 10
110064.1459999997
 20
350247.7290000003
 10
110064.1124
 20
350247.7207999993
 10
110064.0791999996
 20
350247.7114000004
 10
110064.0462999995
 20
350247.7008999996
 10
110064.0137999998
 20
350247.6893000007
 10
110063.9817000003
 20
350247.6765000001
 10
110063.9501
 20
350247.6626999993
 10
110063.9189999998
 20
350247.6478000004
 10
110063.8883999996
 20
350247.6317999997
 10
110063.8584000003
 20
350247.6148000006
 10
110063.8289000001
 20
350247.5966999997
 10
110063.8002000004
 20
350247.5776000004
 10
110063.7720999997
 20
350247.5576000009
 10
110063.7446999997
 20
350247.5365999993
 10
110063.7180000003
 20
350247.5146999993
 10
110063.6920999996
 20
350247.491800001
 10
110063.6671000002
 20
350247.4681000002
 10
110063.6427999996
 20
350247.4434999991
 10
110063.6194000002
 20
350247.4180999995
 10
110063.5969000002
 20
350247.3918999993
 10
110063.5754000004
 20
350247.3650000002
 10
110063.5547000002
 20
350247.3373000007
 10
110063.5351
 20
350247.3089000006
 10
110063.5164000001
 20
350247.2798999995
 10
110063.4988000002
 20
350247.2501999997
 10
110063.4820999997
 20
350247.2200000007
 10
110063.4665999999
 20
350247.1892000008
 10
110063.4521000003
 20
350247.1578000001
 10
110063.4386999998
 20
350247.1260000002
 10
110063.4264000002
 20
350247.0938000009
 10
110063.4151999997
 20
350247.0611000005
 10
110063.4051000001
 20
350247.0281000007
 10
110063.3962000003
 20
350246.9946999998
 10
110063.3885000003
 20
350246.9611000009
 10
110063.3819000004
 20
350246.9272000008
 10
110063.3765000002
 20
350246.8931000009
 10
110063.3722999999
 20
350246.8587999996
 10
110063.3693000004
 20
350246.8244000003
 10
110063.3673999999
 20
350246.7899999992
 10
110063.3667000001
 20
350246.7555
 10
110063.3673
 20
350246.7208999992
 10
110063.3689999999
 20
350246.6864999999
 10
110063.3718999997
 20
350246.6521000005
 10
110063.3760000001
 20
350246.6177999993
 10
110063.3812999995
 20
350246.5836999994
 10
110063.3877999997
 20
350246.5497999992
1001
AcMap_E615D161-C9D7-11d3-839F-0060B0FB6B57
1071
        1
1071
        2
  0
LWPOLYLINE
  5
289
330
1F
100
AcDbEntity
  8
P_SV_SB_FBRD_0
100
AcDbPolyline
 90
       96
 70
     0
 43
0.0
 10
110056.2609999999
 20
350247.4711000007
 10
110056.2087000003
 20
350247.8737000004
 10
110056.1427999996
 20
350248.2743999995
 10
110056.0634000003
 20
350248.6725999992
 10
110055.9705999996
 20
350249.0678000003
 10
110055.8644000003
 20
350249.4597999994
 10
110055.7450000001
 20
350249.8478999995
 10
110055.6125999996
 20
350250.2316999994
 10
110055.4672999996
 20
350250.6107999999
 10
110055.3092
 20
350250.9847999998
 10
110055.1386000002
 20
350251.3532999997
 10
110054.9556
 20
350251.7157000005
 10
110054.7604
 20
350252.0717999991
 10
110054.5532999998
 20
350252.4210000002
 10
110054.3344999999
 20
350252.7631000001
 10
110054.1042999997
 20
350253.0975000002
 10
110053.8628000002
 20
350253.4240000006
 10
110053.6105000004
 20
350253.7421000004
 10
110053.3476
 20
350254.0515000001
 10
110053.0743000004
 20
350254.3518000003
 10
110052.7910000002
 20
350254.6426999997
 10
110052.4981000004
 20
350254.9239000007
 10
110052.1957999998
 20
350255.1949000005
 10
110051.8844999997
 20
350255.4556000009
 10
110051.5645000003
 20
350255.7056000009
 10
110051.2363
 20
350255.9447000008
 10
110050.9002
 20
350256.1724999994
 10
110050.5565999998
 20
350256.3888000008
 10
110050.2059000004
 20
350256.5933999997
 10
110049.8483999995
 20
350256.7859000005
 10
110046.7883999999
 20
350258.4415000007
 10
110048.2078999998
 20
350261.2818
 10
110048.3114999998
 20
350261.2171999999
 10
110048.4172
 20
350261.1561999991
 10
110048.5250000003
 20
350261.0989999995
 10
110048.6348000001
 20
350261.0454999991
 10
110048.7462999997
 20
350260.9958999995
 10
110048.8595000002
 20
350260.9502000008
 10
110048.9742
 20
350260.9085000009
 10
110049.0903000002
 20
350260.8707999997
 10
110049.2076000003
 20
350260.8372000009
 10
110049.3261000002
 20
350260.8077000007
 10
110049.4455000004
 20
350260.7824000009
 10
110049.5657000001
 20
350260.7611999997
 10
110049.6865999996
 20
350260.7442000006
 10
110049.8079000003
 20
350260.7314999998
 10
110049.9297000002
 20
350260.7229999993
 10
110050.0516999997
 20
350260.7186999992
 10
110050.1738
 20
350260.7188000009
 10
110050.2956999997
 20
350260.7229999993
 10
110050.4175000004
 20
350260.7314999998
 10
110050.5389
 20
350260.7443000004
 10
110050.6597999995
 20
350260.7612999995
 10
110050.7800000002
 20
350260.7824000009
 10
110050.8994000004
 20
350260.8078000006
 10
110051.0177999995
 20
350260.8373000008
 10
110051.1350999996
 20
350260.8708999995
 10
110051.2511999998
 20
350260.9086000007
 10
110051.3658999996
 20
350260.9503000007
 10
110051.4791000001
 20
350260.9959999994
 10
110051.5906999996
 20
350261.0457000006
 10
110051.7004000004
 20
350261.0990999993
 10
110051.8081999998
 20
350261.1564000007
 10
110051.9139
 20
350261.2173999995
 10
110052.0174000002
 20
350261.2819999997
 10
110052.1187000004
 20
350261.3501999993
 10
110052.2175000002
 20
350261.4219000005
 10
110052.3136999998
 20
350261.4969999996
 10
110052.4072000002
 20
350261.5754000004
 10
110052.4979999996
 20
350261.6569999997
 10
110052.5857999995
 20
350261.7418000009
 10
110052.6706999996
 20
350261.8295000009
 10
110052.7523999996
 20
350261.9201999996
 10
110052.8309000004
 20
350262.0135999992
 10
110052.9062000001
 20
350262.1097
 10
110052.9780000001
 20
350262.2083999999
 10
110053.0462999996
 20
350262.3095999993
 10
110053.1111000003
 20
350262.4130000007
 10
110053.1721999999
 20
350262.5186999999
 10
110053.2296000002
 20
350262.6263999995
 10
110053.2832000004
 20
350262.7360999994
 10
110053.3329999996
 20
350262.8475000002
 10
110053.3788
 20
350262.9605999999
 10
110053.4206999997
 20
350263.0753000006
 10
110053.4584999997
 20
350263.1912999991
 10
110053.4923
 20
350263.3085999992
 10
110053.5219
 20
350263.4269999993
 10
110053.5475000003
 20
350263.5463999995
 10
110053.5687999995
 20
350263.6666000002
 10
110053.5859000003
 20
350263.7873999999
 10
110053.5987999998
 20
350263.9088000004
 10
110053.6074999999
 20
350264.0306000002
 10
110053.6118999999
 20
350264.1524999999
 10
110053.6120999995
 20
350264.2745999992
 10
110053.608
 20
350264.3966000006
 10
110053.5996000003
 20
350264.5184000004
1001
AcMap_E615D161-C9D7-11d3-839F-0060B0FB6B57
1071
        1
1071
        2
  0
LINE
  5
28A
330
1F
100
AcDbEntity
  8
P_SV_SB_FBRD_0
100
AcDbLine
 10
110193.3981999997
 20
350343.8910000008
 30
0.0
 11
110199.7178999996
 21
350349.5899000001
 31
0.0
1001
AcMap_E615D161-C9D7-11d3-839F-0060B0FB6B57
1071
        1
1071
        2
  0
LWPOLYLINE
  5
28B
330
1F
100
AcDbEntity
  8
P_SV_SB_FBRD_0
100
AcDbPolyline
 90
      127
 70
     0
 43
0.0
 10
110458.9792999997
 20
350422.6018000003
 10
110459.1321999999
 20
350422.5749999993
 10
110459.284
 20
350422.5429999996
 10
110459.4346000002
 20
350422.5057999994
 10
110459.5838999999
 20
350422.4634000007
 10
110459.7315999996
 20
350422.4158999995
 10
110459.8776000002
 20
350422.3632999994
 10
110460.0217000004
 20
350422.3057000004
 10
110460.1637000004
 20
350422.2432000004
 10
110460.3035000004
 20
350422.1758999992
 10
110460.4408999998
 20
350422.1037000008
 10
110460.5756999999
 20
350422.0269000009
 10
110460.7077000001
 20
350421.9453999996
 10
110460.8369000004
 20
350421.8595000003
 10
110460.9631000003
 20
350421.7690999992
 10
110461.0860000001
 20
350421.6744999997
 10
110461.2056
 20
350421.5756000002
 10
110461.3218
 20
350421.4726999998
 10
110461.4342999998
 20
350421.3659000006
 10
110461.5431000003
 20
350421.2552000005
 10
110461.648
 20
350421.140900001
 10
110461.7489
 20
350421.023
 10
110461.8455999996
 20
350420.9016999994
 10
110461.9381999997
 20
350420.7771000006
 10
110462.0263
 20
350420.6494999994
 10
110462.1101000001
 20
350420.5187999998
 10
110462.1891999999
 20
350420.3853999992
 10
110462.2637
 20
350420.2492999993
 10
110462.3334999997
 20
350420.1107000001
 10
110462.3985000001
 20
350419.9697999992
 10
110462.4585999995
 20
350419.8267000001
 10
110462.5137
 20
350419.6816000007
 10
110462.5636999998
 20
350419.5348000005
 10
110462.6086999997
 20
350419.3862999995
 10
110462.6485000001
 20
350419.2363000009
 10
110462.6831999998
 20
350419.0851000008
 10
110462.7126000002
 20
350418.9327000008
 10
110462.7367000002
 20
350418.7794000003
 10
110462.7554999999
 20
350418.6253999993
 10
110462.7690000003
 20
350418.4707999993
 10
110462.7772000003
 20
350418.3158999998
 10
110462.7800000002
 20
350418.1607000008
 10
110462.7774999998
 20
350418.0055999999
 10
110462.7696000002
 20
350417.8506000005
 10
110462.7564000003
 20
350417.6960000005
 10
110462.7379
 20
350417.5419999994
 10
110462.7139999997
 20
350417.3885999993
 10
110462.6848999997
 20
350417.2361999993
 10
110462.6506000003
 20
350417.0848999992
 10
110462.6109999996
 20
350416.9349000007
 10
110462.5663000001
 20
350416.7862999998
 10
110462.5165999997
 20
350416.6392999999
 10
110462.4616999998
 20
350416.4942000006
 10
110462.4018999999
 20
350416.3509999998
 10
110462.3371999999
 20
350416.2098999992
 10
110462.2676999997
 20
350416.0712000002
 10
110462.1935
 20
350415.9350000005
 10
110462.1145000001
 20
350415.8014000002
 10
110462.0311000002
 20
350415.6706000008
 10
110461.9430999998
 20
350415.5427000001
 10
110463.1642000004
 20
350414.6714999992
 10
110463.2813999997
 20
350414.8419000003
 10
110463.3926999997
 20
350415.0163000003
 10
110463.4978999998
 20
350415.1944999993
 10
110463.5969000002
 20
350415.3761
 10
110463.6896000001
 20
350415.5611000005
 10
110463.7758999998
 20
350415.7490999997
 10
110463.8556000003
 20
350415.9399999995
 10
110463.9287
 20
350416.1336000003
 10
110463.9950999999
 20
350416.3295000009
 10
110464.0547000002
 20
350416.5276999996
 10
110464.1074000001
 20
350416.7277000006
 10
110464.1531999996
 20
350416.9295000006
 10
110464.1919999998
 20
350417.1327
 10
110464.2237999998
 20
350417.3370999992
 10
110464.2484999997
 20
350417.5425000005
 10
110464.2660999997
 20
350417.7487000003
 10
110464.2766000004
 20
350417.9552999996
 10
110464.2800000003
 20
350418.1622000002
 10
110464.2762000002
 20
350418.3690000009
 10
110464.2653999999
 20
350418.5756000001
 10
110464.2472999999
 20
350418.7817000002
 10
110464.2221999997
 20
350418.9870999996
 10
110464.1901000002
 20
350419.1914000009
 10
110464.1508999998
 20
350419.3946000003
 10
110464.1047
 20
350419.5963000004
 10
110464.0515999999
 20
350419.7961999998
 10
110463.9916000003
 20
350419.9942000005
 10
110463.9249
 20
350420.1899999995
 10
110463.8514
 20
350420.3835000005
 10
110463.7713000001
 20
350420.5742000007
 10
110463.6847000001
 20
350420.7621
 10
110463.5916999997
 20
350420.9469000008
 10
110463.4923
 20
350421.1283
 10
110463.3866999997
 20
350421.3062999994
 10
110463.2751000002
 20
350421.4804999996
 10
110463.1574999997
 20
350421.6506999992
 10
110463.0341999996
 20
350421.8168000001
 10
110462.9051000001
 20
350421.9784999993
 10
110462.7706000004
 20
350422.1357000004
 10
110462.6308000004
 20
350422.2882000004
 10
110462.4857000001
 20
350422.4356999993
 10
110462.3356999997
 20
350422.5780999996
 10
110462.1808000002
 20
350422.7152999994
 10
110462.0213999999
 20
350422.8471000008
 10
110461.8574000001
 20
350422.9733000007
 10
110461.6891999999
 20
350423.0938000008
 10
110461.517
 20
350423.2083999999
 10
110461.3409000002
 20
350423.3169999999
 10
110461.1611000001
 20
350423.4193999991
 10
110460.9780000001
 20
350423.5156999995
 10
110460.7916000001
 20
350423.6054999996
 10
110460.6023000004
 20
350423.6887999997
 10
110460.4101
 20
350423.7655999996
 10
110460.2154999999
 20
350423.8356999997
 10
110460.0185000002
 20
350423.8991000001
 10
110459.8195000002
 20
350423.955600001
 10
110459.6187000004
 20
350424.0052000005
 10
110459.4161999998
 20
350424.0479000007
 10
110459.2123999996
 20
350424.0835999996
 10
110458.9082000004
 20
350424.1384999995
 10
110456.4482000004
 20
350424.5635000002
 10
110453.9831999996
 20
350424.9885000009
 10
110451.5181999998
 20
350425.4185000006
 10
110449.0581999998
 20
350425.8434999995
 10
110446.5932
 20
350426.2685000003
 10
110444.6815999998
 20
350426.602
1001
AcMap_E615D161-C9D7-11d3-839F-0060B0FB6B57
1071
        1
1071
        2
  0
LWPOLYLINE
  5
28C
330
1F
100
AcDbEntity
  8
P_SV_SB_FBRD_0
100
AcDbPolyline
 90
       48
 70
     0
 43
0.0
 10
110481.0235999999
 20
350420.5607999992
 10
110480.8202999998
 20
350420.5957999994
 10
110480.6160000004
 20
350420.6238000002
 10
110480.4108999995
 20
350420.6448
 10
110480.2050999999
 20
350420.6587000005
 10
110479.9989999998
 20
350420.6655000002
 10
110479.7927999999
 20
350420.6652000006
 10
110479.5866999999
 20
350420.6579
 10
110479.3809000002
 20
350420.6434000005
 10
110479.1758000003
 20
350420.6218999997
 10
110478.9715999998
 20
350420.5933999997
 10
110478.7685000002
 20
350420.5579000004
 10
110478.5665999995
 20
350420.5154
 10
110478.3663999997
 20
350420.4660000001
 10
110478.1679999996
 20
350420.4097000007
 10
110477.9716999996
 20
350420.3466999996
 10
110477.7775999997
 20
350420.2769000009
 10
110477.5860000001
 20
350420.2005000003
 10
110477.3971999995
 20
350420.1175999995
 10
110477.2112999996
 20
350420.0282000006
 10
110477.0286999997
 20
350419.9326000009
 10
110476.8493999997
 20
350419.8306000009
 10
110476.6737000002
 20
350419.7226
 10
110476.5017999997
 20
350419.6086
 10
110476.3339999998
 20
350419.4888000004
 10
110476.1704000002
 20
350419.3632999994
 10
110476.0111999996
 20
350419.2322000005
 10
110475.8564999998
 20
350419.0956999995
 10
110475.7067
 20
350418.954
 10
110475.5618000002
 20
350418.8072999995
 10
110475.4221000001
 20
350418.6556000002
 10
110475.2876000004
 20
350418.4991999995
 10
110475.1585999997
 20
350418.3383000009
 10
110475.0352999996
 20
350418.1731000003
 10
110474.9176000002
 20
350418.0036999994
 10
110474.8059
 20
350417.8303999994
 10
110474.7001
 20
350417.6533000004
 10
110474.6005999995
 20
350417.4726999998
 10
110474.5071999999
 20
350417.2887999993
 10
110474.4203000003
 20
350417.1018000003
 10
110474.3398000002
 20
350416.9119000007
 10
110474.2659
 20
350416.7193999999
 10
110474.1986999996
 20
350416.5243999996
 10
110474.1381999999
 20
350416.3272999991
 10
110474.0844999999
 20
350416.1282000002
 10
110474.0377000002
 20
350415.9273000006
 10
110473.9978999998
 20
350415.7249999997
 10
110473.9649999998
 20
350415.521400001
1001
AcMap_E615D161-C9D7-11d3-839F-0060B0FB6B57
1071
        1
1071
        2
  0
LWPOLYLINE
  5
28D
330
1F
100
AcDbEntity
  8
P_SV_SB_FBRD_0
100
AcDbPolyline
 90
      104
 70
     0
 43
0.0
 10
110464.3711999999
 20
350430.0161000006
 10
110464.4747000001
 20
350430.0
 10
110464.5788000002
 20
350429.9876000006
 10
110464.6831999998
 20
350429.9788000007
 10
110464.7878999998
 20
350429.9737
 10
110464.8925999999
 20
350429.9722000007
 10
110464.9973999997
 20
350429.9744000006
 10
110465.1019999999
 20
350429.9802999999
 10
110465.2063999995
 20
350429.9898000006
 10
110465.3103
 20
350430.0029000007
 10
110465.4138000002
 20
350430.0197000001
 10
110465.5164999999
 20
350430.0399999991
 10
110465.6185999997
 20
350430.0639999993
 10
110465.7197000002
 20
350430.0913999994
 10
110465.8197999997
 20
350430.1224000008
 10
110465.9187000002
 20
350430.1568999999
 10
110466.0164000001
 20
350430.1948000006
 10
110466.1127000004
 20
350430.2360999994
 10
110466.2074999995
 20
350430.2807999998
 10
110466.3006999995
 20
350430.3287000004
 10
110466.3920999998
 20
350430.3797999993
 10
110466.4818000002
 20
350430.4341000002
 10
110466.5694000004
 20
350430.4914999996
 10
110466.6550000002
 20
350430.5519999992
 10
110466.7384999999
 20
350430.6152999998
 10
110466.8196
 20
350430.6816000008
 10
110466.8985000001
 20
350430.7507000007
 10
110466.9748
 20
350430.8224
 10
110467.0486000003
 20
350430.8968000002
 10
110467.1198000004
 20
350430.9737
 10
110467.1881999997
 20
350431.0530999993
 10
110467.2538
 20
350431.1348000002
 10
110467.3164999997
 20
350431.2186999992
 10
110467.3762999996
 20
350431.3048000001
 10
110467.4330000002
 20
350431.3928999994
 10
110467.4866000004
 20
350431.4828999993
 10
110467.5369999995
 20
350431.5747999996
 10
110467.5842000004
 20
350431.6684000008
 10
110467.6281000003
 20
350431.7634999995
 10
110467.6686000004
 20
350431.8600999993
 10
110467.7057999996
 20
350431.9581000004
 10
110467.7394000003
 20
350432.0572999996
 10
110467.7697
 20
350432.1577000003
 10
110467.7962999996
 20
350432.2589999996
 10
110467.8195000002
 20
350432.3611999993
 10
110467.8389999997
 20
350432.4640999995
 10
110467.8550000004
 20
350432.5677000005
 10
110467.8673
 20
350432.6718000006
 10
110467.8759000003
 20
350432.7762000002
 10
110467.881
 20
350432.8808999993
 10
110467.8822999997
 20
350432.9856000003
 10
110467.8799999999
 20
350433.0903999992
 10
110467.8740999996
 20
350433.1950000003
 10
110467.8645000001
 20
350433.2993000001
 10
110467.8512000003
 20
350433.4033000004
 10
110467.8343000002
 20
350433.5066999998
 10
110467.8139000004
 20
350433.6095000003
 10
110467.7898000004
 20
350433.7115000002
 10
110467.7621999997
 20
350433.8125999999
 10
110467.7311000004
 20
350433.9125999995
 10
110467.6966000003
 20
350434.0114999991
 10
110467.6585999997
 20
350434.1092000008
 10
110467.6172000002
 20
350434.2053999994
 10
110467.5723999999
 20
350434.3002000005
 10
110467.5244000004
 20
350434.3933000007
 10
110467.4731999999
 20
350434.4847
 10
110467.4188000001
 20
350434.5743000005
 10
110467.3613
 20
350434.6619000007
 10
110467.3006999995
 20
350434.7474000007
 10
110467.2373000001
 20
350434.8308000006
 10
110467.1709000002
 20
350434.9119000007
 10
110467.1018000003
 20
350434.9905999993
 10
110467.0300000003
 20
350435.0669
 10
110466.9555000001
 20
350435.1405999996
 10
110466.8784999996
 20
350435.2116999999
 10
110466.7991000004
 20
350435.2800999992
 10
110466.7172999997
 20
350435.3455999997
 10
110466.6332999999
 20
350435.4081999995
 10
110466.5471999999
 20
350435.4679000005
 10
110466.4589999998
 20
350435.5244999994
 10
110466.3689000001
 20
350435.5779999997
 10
110466.2769999998
 20
350435.6283
 10
110466.1834000004
 20
350435.6754000001
 10
110466.0882000001
 20
350435.7192000002
 10
110465.9914999995
 20
350435.7596000005
 10
110465.8935000002
 20
350435.7967000008
 10
110465.7942000003
 20
350435.8302999996
 10
110465.6939000003
 20
350435.8604000006
 10
110465.5925000002
 20
350435.8869000003
 10
110465.4902999997
 20
350435.9100000002
 10
110465.3872999996
 20
350435.9294000007
 10
110465.2836999995
 20
350435.9452
 10
110465.1797000002
 20
350435.9573999997
 10
110465.0751999998
 20
350435.966
 10
110464.9705999996
 20
350435.9708999992
 10
110464.8657999998
 20
350435.9722000007
 10
110464.7609999999
 20
350435.9697999992
 10
110464.6563999997
 20
350435.9637000002
 10
110464.5521
 20
350435.9539999999
 10
110464.4482000004
 20
350435.9406000003
 10
110464.3448000001
 20
350435.9236999993
 10
110464.2419999996
 20
350435.9031000007
 10
110464.1401000004
 20
350435.8789000008
 10
110464.0389999999
 20
350435.8511999995
1001
AcMap_E615D161-C9D7-11d3-839F-0060B0FB6B57
1071
        1
1071
        2
  0
LWPOLYLINE
  5
28E
330
1F
100
AcDbEntity
  8
P_SV_SB_FBRD_0
100
AcDbPolyline
 90
       29
 70
     0
 43
0.0
 10
110446.1087999996
 20
350440.0897000004
 10
110446.6401000004
 20
350439.6480999999
 10
110447.1864
 20
350439.2250999995
 10
110447.7470000004
 20
350438.8212000002
 10
110448.3211000003
 20
350438.4370000009
 10
110448.9083000002
 20
350438.0727999993
 10
110449.5076000001
 20
350437.7291000002
 10
110450.1184999999
 20
350437.4063000009
 10
110450.7401
 20
350437.1048000008
 10
110451.3717999998
 20
350436.8248999995
 10
110452.0127999997
 20
350436.5669999998
 10
110452.6622999999
 20
350436.3314999994
 10
110453.3195000002
 20
350436.1184999999
 10
110453.9836999997
 20
350435.9283000007
 10
110454.6540999999
 20
350435.7611999996
 10
110455.3299000002
 20
350435.6173000001
 10
110456.0102000003
 20
350435.4968999997
 10
110456.6942999996
 20
350435.4000000004
 10
110457.3812999995
 20
350435.3267999999
 10
110458.0703999996
 20
350435.2774
 10
110458.7609000001
 20
350435.2518000007
 10
110459.4517999999
 20
350435.2500999998
 10
110460.1423000004
 20
350435.2722999994
 10
110460.8317
 20
350435.3182999995
 10
110461.5191000001
 20
350435.3880000003
 10
110462.2035999996
 20
350435.4814999998
 10
110462.8844999997
 20
350435.5986000002
 10
110463.5609999997
 20
350435.7390999999
 10
110464.2322000004
 20
350435.9028999992
1001
AcMap_E615D161-C9D7-11d3-839F-0060B0FB6B57
1071
        1
1071
        2
  0
LWPOLYLINE
  5
28F
330
1F
100
AcDbEntity
  8
P_SV_SB_FBRD_0
100
AcDbPolyline
 90
       62
 70
     0
 43
0.0
 10
110472.3338999999
 20
350433.924900001
 10
110472.2896999996
 20
350434.1435000003
 10
110472.2380999997
 20
350434.3606000003
 10
110472.1791000003
 20
350434.5756999999
 10
110472.1128000002
 20
350434.7886999994
 10
110472.0390999997
 20
350434.9992999993
 10
110471.9583
 20
350435.2072000001
 10
110471.8704000003
 20
350435.4122000002
 10
110471.7755000004
 20
350435.6140999999
 10
110471.6738
 20
350435.8125999998
 10
110471.5652
 20
350436.0075000003
 10
110471.4501
 20
350436.1985999998
 10
110471.3284999998
 20
350436.3856000006
 10
110471.2005000002
 20
350436.5683999993
 10
110471.0663
 20
350436.7466000002
 10
110470.9260999998
 20
350436.9200999998
 10
110470.7801000001
 20
350437.0887000002
 10
110470.6283
 20
350437.2522
 10
110470.4709999999
 20
350437.4103999995
 10
110470.3084000004
 20
350437.5631000009
 10
110470.1405999996
 20
350437.7101000007
 10
110469.9678999996
 20
350437.8512999994
 10
110469.7904000003
 20
350437.9865000006
 10
110469.6084000003
 20
350438.1154999994
 10
110469.4221000001
 20
350438.2380999997
 10
110469.2317000003
 20
350438.3543999996
 10
110469.0373999998
 20
350438.4639999997
 10
110468.8394999997
 20
350438.5669
 10
110468.6381000001
 20
350438.6629000008
 10
110468.4336000001
 20
350438.7520000004
 10
110468.2260999996
 20
350438.8339000009
 10
110468.0159999998
 20
350438.9088000003
 10
110467.8032999998
 20
350438.9762999994
 10
110467.5886000004
 20
350439.0365999994
 10
110467.3717999998
 20
350439.0894000009
 10
110467.1534000002
 20
350439.1348000002
 10
110466.9336000001
 20
350439.1725999993
 10
110466.7125000004
 20
350439.2029
 10
110466.4906000001
 20
350439.2255000007
 10
110466.2680000001
 20
350439.2405999992
 10
110466.0450999997
 20
350439.2479999997
 10
110465.8219999997
 20
350439.2477000002
 10
110465.5991000002
 20
350439.2398000006
 10
110465.3765000002
 20
350439.2241999992
 10
110465.1546
 20
350439.2010999993
 10
110464.9336999999
 20
350439.1702999995
 10
110464.7138999999
 20
350439.1318999995
 10
110464.4956
 20
350439.0859999992
 10
110464.2790000001
 20
350439.0327000004
 10
110464.0643999996
 20
350438.9719999992
 10
110463.5230999998
 20
350438.8184999991
 10
110462.9770999998
 20
350438.6829000004
 10
110462.4267999995
 20
350438.5656000004
 10
110461.8729999996
 20
350438.4664999992
 10
110461.3162000002
 20
350438.3858000003
 10
110460.7571
 20
350438.3235
 10
110460.1962000001
 20
350438.2797999997
 10
110459.6341000004
 20
350438.2546999995
 10
110459.0714999996
 20
350438.2480999995
 10
110458.5091000004
 20
350438.2601999995
 10
110457.9473000001
 20
350438.2909999993
 10
110457.3868000004
 20
350438.3401999996
1001
AcMap_E615D161-C9D7-11d3-839F-0060B0FB6B57
1071
        1
1071
        2
  0
LWPOLYLINE
  5
290
330
1F
100
AcDbEntity
  8
P_SV_SB_FBRD_0
100
AcDbPolyline
 90
       37
 70
     0
 43
0.0
 10
110472.2575000003
 20
350434.3067000006
 10
110472.3095000004
 20
350434.0362
 10
110472.3707999997
 20
350433.7676
 10
110472.4413
 20
350433.5012999997
 10
110472.5209999997
 20
350433.2376000006
 10
110472.6096999999
 20
350432.9767000005
 10
110472.7072999999
 20
350432.7191000004
 10
110472.8136999998
 20
350432.4649999999
 10
110472.9287999999
 20
350432.2147000003
 10
110473.0525000002
 20
350431.9684999995
 10
110473.1845000004
 20
350431.7268000003
 10
110473.3249000003
 20
350431.4897000007
 10
110473.4732999997
 20
350431.2576000002
 10
110473.6294999998
 20
350431.0307
 10
110473.7936000004
 20
350430.8093999997
 10
110473.9650999997
 20
350430.5938000009
 10
110474.1440000003
 20
350430.3842999991
 10
110474.3299000002
 20
350430.1809999999
 10
110474.5228000004
 20
350429.9843000006
 10
110474.7222999995
 20
350429.7942999992
 10
110474.9281999999
 20
350429.6113000009
 10
110475.1403999999
 20
350429.4354999997
 10
110475.3584000002
 20
350429.2671000007
 10
110475.5821000002
 20
350429.1064
 10
110475.8112000003
 20
350428.9534000009
 10
110476.0455
 20
350428.8083999995
 10
110476.2845999999
 20
350428.6714999993
 10
110476.5281999996
 20
350428.5429999996
 10
110476.7762000002
 20
350428.4229000006
 10
110477.0280999997
 20
350428.3114999998
 10
110477.2838000003
 20
350428.2087999992
 10
110477.5427999999
 20
350428.1149000004
 10
110477.8048999999
 20
350428.0299999994
 10
110478.0696999998
 20
350427.9541999996
 10
110478.3370000003
 20
350427.8875999991
 10
110478.6064999998
 20
350427.8301999998
 10
110478.8777000001
 20
350427.7820999995
1001
AcMap_E615D161-C9D7-11d3-839F-0060B0FB6B57
1071
        1
1071
        2
  0
LWPOLYLINE
  5
291
330
1F
100
AcDbEntity
  8
P_SV_SB_FBRD_0
100
AcDbPolyline
 90
       23
 70
     0
 43
0.0
 10
110450.9720999999
 20
350441.8632999994
 10
110451.1945000002
 20
350441.6055999995
 10
110451.4255999997
 20
350441.3555999994
 10
110451.665
 20
350441.1136000007
 10
110451.9126000004
 20
350440.8798999992
 10
110452.1678999997
 20
350440.6547999997
 10
110452.4308000002
 20
350440.4385000002
 10
110452.7007999998
 20
350440.2312000003
 10
110452.9778000004
 20
350440.0332999993
 10
110453.2613000003
 20
350439.8449000009
 10
110453.5510999998
 20
350439.6663000007
 10
110453.8468000004
 20
350439.4977000002
 10
110454.1480999999
 20
350439.3391999994
 10
110454.4545999998
 20
350439.1909999997
 10
110454.7659
 20
350439.0534000006
 10
110455.0817999998
 20
350438.9265000001
 10
110455.4018000001
 20
350438.8103
 10
110455.7254999997
 20
350438.7051999998
 10
110456.0526999999
 20
350438.6110999995
 10
110456.3827999998
 20
350438.5282000006
 10
110456.7155999998
 20
350438.4565999993
 10
110457.0506999995
 20
350438.3962999992
 10
110457.3876
 20
350438.3475000002
1001
AcMap_E615D161-C9D7-11d3-839F-0060B0FB6B57
1071
        1
1071
        2
  0
LWPOLYLINE
  5
292
330
1F
100
AcDbEntity
  8
P_SV_SB_FBRD_0
100
AcDbPolyline
 90
       27
 70
     0
 43
0.0
 10
110493.8947
 20
350426.6842999999
 10
110493.6547999996
 20
350425.2229999993
 10
110492.1266
 20
350425.4865000006
 10
110489.6616000002
 20
350425.9114999995
 10
110487.2016000002
 20
350426.3414999992
 10
110484.7366000004
 20
350426.7664999999
 10
110482.2715999996
 20
350427.1964999996
 10
110479.8115999996
 20
350427.6215000004
 10
110478.6694999998
 20
350427.8183999993
 10
110479.8115999996
 20
350427.6215000004
 10
110482.2715999996
 20
350427.1964999996
 10
110484.7366000004
 20
350426.7664999999
 10
110487.2016000002
 20
350426.3414999992
 10
110489.6616000002
 20
350425.9114999995
 10
110492.1266
 20
350425.4865000006
 10
110493.6566000003
 20
350425.2226999998
 10
110516.7199999997
 20
350420.9749999996
 10
110519.1799999997
 20
350420.5449999999
 10
110521.6449999995
 20
350420.1199999992
 10
110524.1050000004
 20
350419.6950000003
 10
110526.5700000003
 20
350419.2650000006
 10
110529.0350000001
 20
350418.8399999999
 10
110531.4950000001
 20
350418.4149999991
 10
110533.9599999999
 20
350417.9849999994
 10
110536.4249999998
 20
350417.5600000006
 10
110540.5056999996
 20
350416.8530000001
 10
110558.0946000004
 20
350413.4318000004
1001
AcMap_E615D161-C9D7-11d3-839F-0060B0FB6B57
1071
        1
1071
        2
  0
LWPOLYLINE
  5
293
330
1F
100
AcDbEntity
  8
P_SV_SB_FBRD_0
100
AcDbPolyline
 90
       12
 70
     0
 43
0.0
 10
109912.1160000004
 20
350160.0350000002
 10
109912.3581999997
 20
350160.2852999996
 10
109912.5915000001
 20
350160.5438000002
 10
109912.8156000003
 20
350160.8103000001
 10
109913.0303999996
 20
350161.0844999999
 10
109913.2353999996
 20
350161.3659000006
 10
109913.4305999996
 20
350161.6543000005
 10
109913.6156000001
 20
350161.9494000003
 10
109913.7901999997
 20
350162.2507000007
 10
109913.9541999996
 20
350162.5579000004
 10
109914.1074000001
 20
350162.8706
 10
109914.2495999997
 20
350163.1885000002
1001
AcMap_E615D161-C9D7-11d3-839F-0060B0FB6B57
1071
        1
1071
        2
  0
LINE
  5
294
330
1F
100
AcDbEntity
  8
P_SV_SB_FBRD_0
100
AcDbLine
 10
109900.0711000003
 20
350149.9105999992
 30
0.0
 11
109901.1413000002
 21
350148.8596000001
 31
0.0
1001
AcMap_E615D161-C9D7-11d3-839F-0060B0FB6B57
1071
        1
1071
        2
  0
LWPOLYLINE
  5
295
330
1F
100
AcDbEntity
  8
P_SV_SB_FBRD_0
100
AcDbPolyline
 90
       76
 70
     0
 43
0.0
 10
109623.6245999997
 20
349977.5636000001
 10
109623.6913999999
 20
349977.6324000005
 10
109623.7558000004
 20
349977.703400001
 10
109623.8176999995
 20
349977.7766999994
 10
109623.8770000003
 20
349977.8520999998
 10
109623.9336000001
 20
349977.9295000005
 10
109623.9874999998
 20
349978.0088
 10
109624.0385999996
 20
349978.0899999999
 10
109624.0867999997
 20
349978.1729000006
 10
109624.1321
 20
349978.2574000005
 10
109624.1744999997
 20
349978.3433999997
 10
109624.2138
 20
349978.4309000001
 10
109624.25
 20
349978.5197000001
 10
109624.2832000004
 20
349978.6096999999
 10
109624.3130999999
 20
349978.7007999998
 10
109624.3399
 20
349978.7928999998
 10
109624.3634000001
 20
349978.8859000001
 10
109624.3837000001
 20
349978.9795999993
 10
109624.4007000001
 20
349979.0739999991
 10
109624.4144000001
 20
349979.1688999999
 10
109624.4248000001
 20
349979.2642999999
 10
109624.4319000002
 20
349979.3598999996
 10
109624.4356000004
 20
349979.4557000008
 10
109624.4359999997
 20
349979.5515999999
 10
109624.4330000002
 20
349979.6475000009
 10
109624.4266999997
 20
349979.7432000004
 10
109624.4170000003
 20
349979.8386000004
 10
109624.4040999999
 20
349979.9335999992
 10
109624.3877999997
 20
349980.0282000006
 10
109624.3682000004
 20
349980.1219999996
 10
109624.3454
 20
349980.2151999996
 10
109624.3192999996
 20
349980.3074999992
 10
109624.2900999999
 20
349980.3988000006
 10
109624.2576999999
 20
349980.4890999999
 10
109624.2220999999
 20
349980.5780999996
 10
109624.1835000003
 20
349980.6658999994
 10
109624.1418000003
 20
349980.7522999998
 10
109624.0970999999
 20
349980.8372000009
 10
109624.0494999997
 20
349980.9203999993
 10
109623.9990999996
 20
349981.0020000003
 10
109623.9457999999
 20
349981.0817000009
 10
109623.8898
 20
349981.1596000009
 10
109623.8311000001
 20
349981.2354000006
 10
109623.7697
 20
349981.3091000002
 10
109623.7059000004
 20
349981.3806999997
 10
109623.6396000003
 20
349981.4499999993
 10
109623.5708999997
 20
349981.5168999993
 10
109623.4999000001
 20
349981.5813999996
 10
109623.4267999995
 20
349981.6434000005
 10
109623.3514999998
 20
349981.7028000001
 10
109623.2741
 20
349981.7595000007
 10
109623.1948999995
 20
349981.8135000002
 10
109623.1138000004
 20
349981.8647000008
 10
109623.0310000004
 20
349981.9131000005
 10
109622.9464999996
 20
349981.9584999997
 10
109622.8605000004
 20
349982.0010000002
 10
109622.7730999999
 20
349982.0404000003
 10
109622.6842999998
 20
349982.0767999999
 10
109622.5943999998
 20
349982.1099999994
 10
109622.5033
 20
349982.1401000005
 10
109622.4112999998
 20
349982.1669999994
 10
109622.3183000004
 20
349982.1907000002
 10
109622.2246000003
 20
349982.2111000009
 10
109622.1303000003
 20
349982.2281999998
 10
109622.0354000004
 20
349982.2421000004
 10
109621.9400000004
 20
349982.2525999994
 10
109621.8443999998
 20
349982.2598000001
 10
109621.7485999996
 20
349982.2635999993
 10
109621.6527000004
 20
349982.2641000003
 10
109621.5568000004
 20
349982.2612999994
 10
109621.4610999999
 20
349982.2551000007
 10
109621.3656999999
 20
349982.2456
 10
109621.2706000004
 20
349982.2326999996
 10
109621.1760999998
 20
349982.2166000009
 10
109621.0822
 20
349982.1972000003
 10
109620.989
 20
349982.1744999998
1001
AcMap_E615D161-C9D7-11d3-839F-0060B0FB6B57
1071
        1
1071
        2
  0
LINE
  5
296
330
1F
100
AcDbEntity
  8
P_SV_SB_FBRD_0
100
AcDbLine
 10
109900.0711000003
 20
350149.9105999992
 30
0.0
 11
109910.5114000002
 21
350160.5412000008
 31
0.0
1001
AcMap_E615D161-C9D7-11d3-839F-0060B0FB6B57
1071
        1
1071
        2
  0
LINE
  5
297
330
1F
100
AcDbEntity
  8
P_SV_SB_FBRD_0
100
AcDbLine
 10
109910.5114000002
 20
350160.5412000008
 30
0.0
 11
109911.0564000001
 21
350161.0966999996
 31
0.0
1001
AcMap_E615D161-C9D7-11d3-839F-0060B0FB6B57
1071
        1
1071
        2
  0
LINE
  5
298
330
1F
100
AcDbEntity
  8
P_SV_SB_FBRD_0
100
AcDbLine
 10
109900.0711000003
 20
350149.9105999992
 30
0.0
 11
109901.1413000002
 21
350148.8596000001
 31
0.0
1001
AcMap_E615D161-C9D7-11d3-839F-0060B0FB6B57
1071
        1
1071
        2
  0
LWPOLYLINE
  5
299
330
1F
100
AcDbEntity
  8
P_SV_SB_FBRD_0
100
AcDbPolyline
 90
        3
 70
     0
 43
0.0
 10
109918.0630999999
 20
350171.8830999993
 10
109916.7066999999
 20
350172.5249000005
 10
109912.8020000001
 20
350163.6212000009
1001
AcMap_E615D161-C9D7-11d3-839F-0060B0FB6B57
1071
        1
1071
        2
  0
LINE
  5
29A
330
1F
100
AcDbEntity
  8
P_SV_SB_FBRD_0
100
AcDbLine
 10
109900.0711000003
 20
350149.9105999992
 30
0.0
 11
109910.5114000002
 21
350160.5412000008
 31
0.0
1001
AcMap_E615D161-C9D7-11d3-839F-0060B0FB6B57
1071
        1
1071
        2
  0
LWPOLYLINE
  5
29B
330
1F
100
AcDbEntity
  8
P_SV_SB_FBRD_0
100
AcDbPolyline
 90
       23
 70
     0
 43
0.0
 10
109911.0564000001
 20
350161.0966999996
 10
109911.2621999998
 20
350161.3093999997
 10
109911.4605
 20
350161.5292000007
 10
109911.6511000004
 20
350161.7556999997
 10
109911.8335999995
 20
350161.9887000006
 10
109912.0078999996
 20
350162.2280000002
 10
109912.1738
 20
350162.4730999991
 10
109912.3310000002
 20
350162.7238999996
 10
109912.4793999996
 20
350162.9800000005
 10
109912.6188000003
 20
350163.2411000002
 10
109912.7489999998
 20
350163.5069999994
 10
109912.8699000003
 20
350163.7771000006
 10
109912.7489999998
 20
350163.5069999994
 10
109912.6188000003
 20
350163.2411000002
 10
109912.4793999996
 20
350162.9800000005
 10
109912.3310000002
 20
350162.7238999996
 10
109912.1738
 20
350162.4730999991
 10
109912.0078999996
 20
350162.2280000002
 10
109911.8335999995
 20
350161.9887000006
 10
109911.6511000004
 20
350161.7556999997
 10
109911.4605
 20
350161.5292000007
 10
109911.2621999998
 20
350161.3093999997
 10
109911.0564000001
 20
350161.0966999996
1001
AcMap_E615D161-C9D7-11d3-839F-0060B0FB6B57
1071
        1
1071
        2
  0
LINE
  5
29C
330
1F
100
AcDbEntity
  8
P_SV_SB_FBRD_0
100
AcDbLine
 10
109910.5114000002
 20
350160.5412000008
 30
0.0
 11
109911.0564000001
 21
350161.0966999996
 31
0.0
1001
AcMap_E615D161-C9D7-11d3-839F-0060B0FB6B57
1071
        1
1071
        2
  0
LINE
  5
29D
330
1F
100
AcDbEntity
  8
P_SV_SB_FBRD_0
100
AcDbLine
 10
109900.0711000003
 20
350149.9105999992
 30
0.0
 11
109901.1413000002
 21
350148.8596000001
 31
0.0
1001
AcMap_E615D161-C9D7-11d3-839F-0060B0FB6B57
1071
        1
1071
        2
  0
LWPOLYLINE
  5
29E
330
1F
100
AcDbEntity
  8
P_SV_SB_FBRD_0
100
AcDbPolyline
 90
        3
 70
     0
 43
0.0
 10
110070.7280999999
 20
350289.6206999999
 10
110080.2637
 20
350289.0406999998
 10
110080.1689999997
 20
350286.5260000006
1001
AcMap_E615D161-C9D7-11d3-839F-0060B0FB6B57
1071
        1
1071
        2
  0
LINE
  5
29F
330
1F
100
AcDbEntity
  8
P_SV_SB_FBRD_0
100
AcDbLine
 10
110072.9850000003
 20
350286.9788000007
 30
0.0
 11
110080.1752000004
 21
350286.5414000005
 31
0.0
1001
AcMap_E615D161-C9D7-11d3-839F-0060B0FB6B57
1071
        1
1071
        2
  0
LWPOLYLINE
  5
2A0
330
1F
100
AcDbEntity
  8
P_SV_SB_FBRD_0
100
AcDbPolyline
 90
       31
 70
     0
 43
0.0
 10
110072.9851000002
 20
350286.9833000005
 10
110072.6447999999
 20
350286.9933000003
 10
110072.3043999998
 20
350286.9915999994
 10
110071.9642000003
 20
350286.9784999993
 10
110071.6246999996
 20
350286.9537000004
 10
110071.2861999999
 20
350286.9174000006
 10
110070.9491999997
 20
350286.8695999999
 10
110070.614
 20
350286.8103
 10
110070.2808999996
 20
350286.7397000008
 10
110069.9505000003
 20
350286.6578000002
 10
110069.6231000004
 20
350286.5647
 10
110069.2989999996
 20
350286.4605000001
 10
110068.9786999998
 20
350286.3453000002
 10
110068.6623999998
 20
350286.2193
 10
110068.3505999995
 20
350286.0825999994
 10
110068.0437000002
 20
350285.9353
 10
110067.7419999996
 20
350285.7776999996
 10
110067.4457999998
 20
350285.6099999994
 10
110067.1553999996
 20
350285.4321999997
 10
110066.8712999997
 20
350285.2446999997
 10
110066.5937999999
 20
350285.0474999994
 10
110066.3230999997
 20
350284.8410999999
 10
110066.0596000003
 20
350284.6256000009
 10
110065.8036000002
 20
350284.4012000002
 10
110065.5553999999
 20
350284.1681999993
 10
110065.3152000001
 20
350283.9269999992
 10
110065.0833999999
 20
350283.6776999999
 10
110064.8602
 20
350283.4206000008
 10
110064.6458999999
 20
350283.1560999994
 10
110064.4407000001
 20
350282.8845000006
 10
110064.2449000003
 20
350282.6060000006
1001
AcMap_E615D161-C9D7-11d3-839F-0060B0FB6B57
1071
        1
1071
        2
  0
LINE
  5
2A1
330
1F
100
AcDbEntity
  8
P_SV_SB_FBRD_0
100
AcDbLine
 10
110285.2977999998
 20
350409.3527000006
 30
0.0
 11
110283.2596000004
 21
350411.6296999995
 31
0.0
1001
AcMap_E615D161-C9D7-11d3-839F-0060B0FB6B57
1071
        1
1071
        2
  0
LINE
  5
2A2
330
1F
100
AcDbEntity
  8
P_SV_SB_FBRD_0
100
AcDbLine
 10
110287.8837000001
 20
350411.7115000003
 30
0.0
 11
110285.8723999998
 21
350413.9583999999
 31
0.0
1001
AcMap_E615D161-C9D7-11d3-839F-0060B0FB6B57
1071
        1
1071
        2
  0
LWPOLYLINE
  5
2A3
330
1F
100
AcDbEntity
  8
P_SV_SB_FBRD_0
100
AcDbPolyline
 90
       47
 70
     0
 43
0.0
 10
110286.1312999995
 20
350418.2074999996
 10
110286.0548999998
 20
350418.1382999998
 10
110285.9808
 20
350418.0666000005
 10
110285.9093000004
 20
350417.9923000001
 10
110285.8404000001
 20
350417.9156999998
 10
110285.7741999998
 20
350417.8366999999
 10
110285.7106999997
 20
350417.7555
 10
110285.6501000002
 20
350417.6721999999
 10
110285.5922999997
 20
350417.5867999997
 10
110285.5374999996
 20
350417.4995000009
 10
110285.4857000001
 20
350417.4103999995
 10
110285.4370999997
 20
350417.3194999993
 10
110285.3915999997
 20
350417.2270999998
 10
110285.3492
 20
350417.1330999993
 10
110285.3102000002
 20
350417.0376999993
 10
110285.2744000004
 20
350416.9409999997
 10
110285.2419999996
 20
350416.8432
 10
110285.2130000004
 20
350416.7443000004
 10
110285.1873000003
 20
350416.6445000004
 10
110285.1650999999
 20
350416.5438000001
 10
110285.1464
 20
350416.4423999991
 10
110285.1311999997
 20
350416.3405000009
 10
110285.1195
 20
350416.2380999998
 10
110285.1113
 20
350416.1352999993
 10
110285.1067000004
 20
350416.0324000009
 10
110285.1056000003
 20
350415.929300001
 10
110285.108
 20
350415.8263000008
 10
110285.114
 20
350415.7234000005
 10
110285.1234999997
 20
350415.6206999999
 10
110285.1365
 20
350415.5185000003
 10
110285.1529999999
 20
350415.4167999998
 10
110285.1730000004
 20
350415.3157000002
 10
110285.1964999996
 20
350415.2152999993
 10
110285.2233999995
 20
350415.1158000008
 10
110285.2537000002
 20
350415.0173000005
 10
110285.2873999998
 20
350414.9199000001
 10
110285.3244000002
 20
350414.8236999996
 10
110285.3646999998
 20
350414.7288000007
 10
110285.4082000004
 20
350414.6353999991
 10
110285.4549000002
 20
350414.5435000007
 10
110285.5048000002
 20
350414.4532999993
 10
110285.5576999997
 20
350414.3648000006
 10
110285.6135999998
 20
350414.2782000005
 10
110285.6723999996
 20
350414.1936000009
 10
110285.7341
 20
350414.1109999995
 10
110285.7987000001
 20
350414.0307
 10
110285.8658999996
 20
350413.9526000005
1001
AcMap_E615D161-C9D7-11d3-839F-0060B0FB6B57
1071
        1
1071
        2
  0
LWPOLYLINE
  5
2A4
330
1F
100
AcDbEntity
  8
P_SV_SB_FBRD_0
100
AcDbPolyline
 90
       46
 70
     0
 43
0.0
 10
110283.2812000001
 20
350411.6489000004
 10
110283.2099999999
 20
350411.7259999998
 10
110283.1363000003
 20
350411.8005
 10
110283.0598999998
 20
350411.8724000007
 10
110282.9811000004
 20
350411.9416000005
 10
110282.8998999996
 20
350412.0079999995
 10
110282.8164999997
 20
350412.0714999996
 10
110282.7308999998
 20
350412.1319999993
 10
110282.6431999998
 20
350412.1896000002
 10
110282.5535000004
 20
350412.2440000009
 10
110282.4621000001
 20
350412.2952999995
 10
110282.3688000003
 20
350412.3432999999
 10
110282.2740000002
 20
350412.3880000003
 10
110282.1776
 20
350412.4294000007
 10
110282.0799000002
 20
350412.4673999995
 10
110281.9808999998
 20
350412.5020000004
 10
110281.8806999996
 20
350412.5330999997
 10
110281.7796
 20
350412.5606999993
 10
110281.6775000002
 20
350412.5846999996
 10
110281.5745999999
 20
350412.6051000003
 10
110281.4710999997
 20
350412.6218999997
 10
110281.3671000004
 20
350412.6350999996
 10
110281.2626
 20
350412.6447000001
 10
110281.1579
 20
350412.6505999994
 10
110281.0531000001
 20
350412.6527999993
 10
110280.9482000004
 20
350412.6513999999
 10
110280.8435000004
 20
350412.6462999992
 10
110280.739
 20
350412.6375999991
 10
110280.6348000001
 20
350412.6251999997
 10
110280.5312000001
 20
350412.6090999991
 10
110280.4282
 20
350412.5895000007
 10
110280.3258999996
 20
350412.5661999994
 10
110280.2244999995
 20
350412.5395
 10
110280.1240999996
 20
350412.5090999995
 10
110280.0248999996
 20
350412.4752999992
 10
110279.9267999995
 20
350412.4381000008
 10
110279.8301999997
 20
350412.3973999992
 10
110279.7350000003
 20
350412.3533999994
 10
110279.6414000001
 20
350412.3060999997
 10
110279.5494999997
 20
350412.2555
 10
110279.4594999999
 20
350412.2018
 10
110279.3713999996
 20
350412.1448999998
 10
110279.2852999996
 20
350412.0850000009
 10
110279.2012999998
 20
350412.0220999997
 10
110279.1196999997
 20
350411.9563999996
 10
110279.0403000004
 20
350411.8878000006
1001
AcMap_E615D161-C9D7-11d3-839F-0060B0FB6B57
1071
        1
1071
        2
  0
LINE
  5
2A5
330
1F
100
AcDbEntity
  8
P_SV_SB_FBRD_0
100
AcDbLine
 10
110285.2977999998
 20
350409.3527000006
 30
0.0
 11
110287.8837000001
 21
350411.7115000003
 31
0.0
1001
AcMap_E615D161-C9D7-11d3-839F-0060B0FB6B57
1071
        1
1071
        2
  0
LWPOLYLINE
  5
2A6
330
1F
100
AcDbEntity
  8
P_SV_SB_FBRD_0
100
AcDbPolyline
 90
       73
 70
     0
 43
0.0
 10
109601.9549000002
 20
349914.4309999999
 10
109599.2018999997
 20
349917.7334000003
 10
109594.8661000002
 20
349922.6502000001
 10
109598.3295
 20
349925.4673999995
 10
109598.4184999997
 20
349925.3598999996
 10
109598.5110999998
 20
349925.2555
 10
109598.6073000003
 20
349925.1544000003
 10
109598.7070000004
 20
349925.0568000004
 10
109598.8099999996
 20
349924.9626000003
 10
109598.9162999997
 20
349924.8721999992
 10
109599.0256000002
 20
349924.7854999993
 10
109599.1379000004
 20
349924.7026000005
 10
109599.2529999995
 20
349924.6237000003
 10
109599.3707999997
 20
349924.5489000008
 10
109599.4912
 20
349924.4782999996
 10
109599.6139000002
 20
349924.4119000007
 10
109599.7389000002
 20
349924.3498
 10
109599.8658999996
 20
349924.2920999993
 10
109599.9949000002
 20
349924.2388000004
 10
109600.1256999997
 20
349924.1900999994
 10
109600.2581000002
 20
349924.1459999998
 10
109600.3919000001
 20
349924.1065999996
 10
109600.5270999996
 20
349924.0717999992
 10
109600.6634
 20
349924.0417999998
 10
109600.8005999997
 20
349924.0164999999
 10
109600.9386
 20
349923.9960999992
 10
109601.0773
 20
349923.9803999998
 10
109601.2164000002
 20
349923.9695999995
 10
109601.3558999998
 20
349923.9637000002
 10
109601.4954000003
 20
349923.9627000001
 10
109601.6348999999
 20
349923.9664999992
 10
109601.7741999999
 20
349923.9750999995
 10
109601.9130999995
 20
349923.9887000006
 10
109602.0514000002
 20
349924.0069999994
 10
109602.1890000002
 20
349924.0302000009
 10
109602.3256999999
 20
349924.0581999999
 10
109602.4614000004
 20
349924.0909000002
 10
109602.5958000002
 20
349924.1283
 10
109602.7289000004
 20
349924.1703999993
 10
109602.8603999996
 20
349924.2171000001
 10
109602.9901999999
 20
349924.2684000004
 10
109603.1180999996
 20
349924.3241000008
 10
109603.2439999999
 20
349924.3842999991
 10
109603.3677000003
 20
349924.4488999993
 10
109603.4890999999
 20
349924.5176999997
 10
109603.608
 20
349924.5907000005
 10
109603.7242999999
 20
349924.6677999999
 10
109603.8378999997
 20
349924.7489999998
 10
109603.9484999999
 20
349924.8340000008
 10
109604.0560999997
 20
349924.9228000008
 10
109604.1606
 20
349925.0153999999
 10
109604.2616999997
 20
349925.1115000006
 10
109604.3595000002
 20
349925.2111000009
 10
109604.4537000004
 20
349925.3140999992
 10
109604.5442000003
 20
349925.4202999995
 10
109604.631
 20
349925.5295000002
 10
109604.7138999998
 20
349925.6417999994
 10
109604.7928999998
 20
349925.7567999997
 10
109604.8678000001
 20
349925.8745000009
 10
109604.9386
 20
349925.9947999995
 10
109605.0050999997
 20
349926.1174999997
 10
109605.0673000002
 20
349926.2423999999
 10
109605.1250999998
 20
349926.3694000002
 10
109605.1783999996
 20
349926.4984000009
 10
109605.2271999996
 20
349926.6291000005
 10
109605.2714
 20
349926.7614999991
 10
109605.3109999997
 20
349926.8953000009
 10
109605.3459000001
 20
349927.0304000005
 10
109605.3760000001
 20
349927.1666999999
 10
109605.4013999999
 20
349927.3038999997
 10
109605.4220000002
 20
349927.4419
 10
109605.4376999997
 20
349927.5806000009
 10
109605.4485999998
 20
349927.7196999994
1001
AcMap_E615D161-C9D7-11d3-839F-0060B0FB6B57
1071
        1
1071
        2
  0
LWPOLYLINE
  5
2A7
330
1F
100
AcDbEntity
  8
P_SV_SB_FBRD_0
100
AcDbPolyline
 90
       27
 70
     0
 43
0.0
 10
110480.8266000002
 20
350420.5956999995
 10
110481.1200000001
 20
350420.5449999999
 10
110483.5849999999
 20
350420.1150000002
 10
110486.0499999998
 20
350419.6899999995
 10
110488.5099999997
 20
350419.2650000006
 10
110490.9749999996
 20
350418.8350000009
 10
110493.4400000004
 20
350418.4100000002
 10
110495.9000000004
 20
350417.9849999994
 10
110498.3650000002
 20
350417.5549999998
 10
110500.8300000001
 20
350417.1300000009
 10
110503.29
 20
350416.6999999993
 10
110505.7549999999
 20
350416.2750000004
 10
110508.2199999997
 20
350415.8499999996
 10
110510.6799999997
 20
350415.4199999999
 10
110513.1449999995
 20
350414.9949999992
 10
110515.6100000003
 20
350414.5700000003
 10
110518.0700000003
 20
350414.1400000006
 10
110520.5350000001
 20
350413.7149999999
 10
110523.0
 20
350413.2899999991
 10
110525.4599999999
 20
350412.8599999994
 10
110527.9249999998
 20
350412.4350000006
 10
110530.3899999996
 20
350412.0099999998
 10
110532.8499999996
 20
350411.5800000001
 10
110535.3150000004
 20
350411.1549999993
 10
110537.7800000002
 20
350410.7300000005
 10
110539.3949999995
 20
350410.4499999993
 10
110557.4523
 20
350407.4498999994
1001
AcMap_E615D161-C9D7-11d3-839F-0060B0FB6B57
1071
        1
1071
        2
  0
LWPOLYLINE
  5
2A8
330
1F
100
AcDbEntity
  8
P_SV_SB_FBRD_0
100
AcDbPolyline
 90
       75
 70
     0
 43
0.0
 10
110286.1312999995
 20
350418.2074999996
 10
110287.1374000003
 20
350419.0796000008
 10
110289.0073999995
 20
350420.6896000002
 10
110290.8874000003
 20
350422.2745999992
 10
110292.7823999999
 20
350423.8245999999
 10
110294.6973999999
 20
350425.3396000006
 10
110296.6374000003
 20
350426.8146000002
 10
110298.5974000003
 20
350428.239600001
 10
110300.5873999996
 20
350429.6096000001
 10
110302.6074000001
 20
350430.9196000007
 10
110304.6573999999
 20
350432.1696000006
 10
110306.7423999998
 20
350433.3545999993
 10
110308.8673999998
 20
350434.4695999995
 10
110311.0224000001
 20
350435.5196000002
 10
110313.2073999997
 20
350436.5045999997
 10
110315.4274000004
 20
350437.4145999998
 10
110317.6723999996
 20
350438.2596000005
 10
110319.9424
 20
350439.0346000009
 10
110322.2374
 20
350439.7346000001
 10
110324.5473999995
 20
350440.3646000009
 10
110326.8823999995
 20
350440.9245999996
 10
110329.2324000001
 20
350441.4096000008
 10
110331.5924000004
 20
350441.8195999991
 10
110333.9674000004
 20
350442.1546
 10
110336.3524000002
 20
350442.4196000007
 10
110338.7423999999
 20
350442.6045999993
 10
110341.1374000003
 20
350442.7195999995
 10
110343.5373999998
 20
350442.7545999997
 10
110345.9473999999
 20
350442.7246000003
 10
110348.3574000001
 20
350442.6246000007
 10
110350.7774
 20
350442.4646000006
 10
110353.1973999999
 20
350442.2496000007
 10
110355.6273999996
 20
350441.9846000001
 10
110358.0574000003
 20
350441.6845999994
 10
110360.4923999998
 20
350441.3445999996
 10
110362.9274000004
 20
350440.9746000003
 10
110365.3723999997
 20
350440.5796000007
 10
110367.8223999999
 20
350440.1696000007
 10
110370.2774
 20
350439.7445999999
 10
110372.7373999999
 20
350439.3195999992
 10
110375.2023999998
 20
350438.8946000002
 10
110377.6673999997
 20
350438.4646000005
 10
110380.1273999996
 20
350438.0395999998
 10
110382.5924000004
 20
350437.6146000009
 10
110385.0574000003
 20
350437.1845999994
 10
110387.5174000002
 20
350436.7596000005
 10
110389.9824000001
 20
350436.3345999998
 10
110392.4473999999
 20
350435.9046000001
 10
110394.9073999999
 20
350435.4795999993
 10
110397.3723999997
 20
350435.0495999996
 10
110399.8373999996
 20
350434.6246000007
 10
110402.2973999996
 20
350434.1995999999
 10
110404.7624000003
 20
350433.7696000002
 10
110407.2224000003
 20
350433.3445999995
 10
110409.6874000002
 20
350432.9196000006
 10
110412.1524
 20
350432.4896000009
 10
110414.6124
 20
350432.0646000002
 10
110417.0773999998
 20
350431.6395999995
 10
110419.5423999997
 20
350431.2095999998
 10
110422.0023999996
 20
350430.7846000008
 10
110424.4674000004
 20
350430.3596000001
 10
110426.9324000003
 20
350429.9296000005
 10
110429.3924000002
 20
350429.5045999997
 10
110431.8574000001
 20
350429.0796000008
 10
110434.3223999999
 20
350428.6495999992
 10
110434.8739999998
 20
350428.5543000009
 10
110444.6815999998
 20
350426.602
 10
110444.4226000001
 20
350425.1243999992
 10
110446.3678000001
 20
350424.7850000002
 10
110448.8342000004
 20
350424.3597999998
 10
110451.2925000004
 20
350423.9351000004
 10
110453.7577999998
 20
350423.5050000009
 10
110456.2242
 20
350423.0798000005
 10
110458.6825000001
 20
350422.6550999991
 10
110459.2385999998
 20
350422.5581000001
1001
AcMap_E615D161-C9D7-11d3-839F-0060B0FB6B57
1071
        1
1071
        2
  0
LWPOLYLINE
  5
2A9
330
1F
100
AcDbEntity
  8
P_SV_SB_FBRD_0
100
AcDbPolyline
 90
      101
 70
     0
 43
0.0
 10
110279.0403000004
 20
350411.8878000006
 10
110277.8300000001
 20
350410.8049999997
 10
110275.9699999997
 20
350409.1349999998
 10
110274.1100000003
 20
350407.4700000007
 10
110272.2450000001
 20
350405.8000000008
 10
110270.3849999998
 20
350404.1300000009
 10
110268.5199999995
 20
350402.4649999999
 10
110266.6600000001
 20
350400.795
 10
110264.7949999999
 20
350399.125
 10
110262.9349999996
 20
350397.460000001
 10
110261.0750000002
 20
350395.7899999991
 10
110259.2099999999
 20
350394.125
 10
110257.3499999996
 20
350392.4550000001
 10
110255.4850000003
 20
350390.7850000002
 10
110253.625
 20
350389.1199999992
 10
110251.7649999996
 20
350387.4499999993
 10
110249.9000000004
 20
350385.7799999994
 10
110248.04
 20
350384.1150000003
 10
110246.1749999998
 20
350382.4450000003
 10
110244.3150000004
 20
350380.7799999993
 10
110242.4500000002
 20
350379.1099999995
 10
110240.5899999998
 20
350377.4399999995
 10
110238.7300000004
 20
350375.7750000004
 10
110236.8650000002
 20
350374.1050000005
 10
110235.0049999999
 20
350372.4350000005
 10
110233.1399999997
 20
350370.7699999996
 10
110231.2800000002
 20
350369.0999999996
 10
110229.4199999999
 20
350367.4350000006
 10
110227.5549999997
 20
350365.7650000006
 10
110225.6950000003
 20
350364.0950000007
 10
110223.8300000001
 20
350362.4299999997
 10
110221.9699999997
 20
350360.7599999998
 10
110220.1100000003
 20
350359.0899999999
 10
110218.2450000001
 20
350357.4250000008
 10
110216.3849999998
 20
350355.7550000009
 10
110214.5199999995
 20
350354.0899999999
 10
110212.6600000001
 20
350352.42
 10
110210.7949999999
 20
350350.75
 10
110208.9349999996
 20
350349.0850000009
 10
110207.0750000002
 20
350347.4149999991
 10
110205.2099999999
 20
350345.7449999992
 10
110203.3499999996
 20
350344.0800000001
 10
110201.4850000003
 20
350342.4100000002
 10
110199.625
 20
350340.7449999992
 10
110197.7649999996
 20
350339.0749999993
 10
110195.9000000004
 20
350337.4049999994
 10
110194.04
 20
350335.7400000002
 10
110192.1749999998
 20
350334.0700000003
 10
110190.3150000004
 20
350332.4000000004
 10
110188.4500000002
 20
350330.7349999995
 10
110186.5899999998
 20
350329.0649999995
 10
110184.7149999998
 20
350327.3949999996
 10
110182.8250000002
 20
350325.7249999997
 10
110180.915
 20
350324.0649999995
 10
110178.9800000004
 20
350322.4149999991
 10
110177.0149999997
 20
350320.7899999991
 10
110175.0099999998
 20
350319.1950000003
 10
110172.9699999997
 20
350317.6349999999
 10
110170.8849999998
 20
350316.1150000003
 10
110168.75
 20
350314.6449999996
 10
110166.5650000004
 20
350313.2349999994
 10
110164.33
 20
350311.8900000006
 10
110162.0499999998
 20
350310.6199999992
 10
110159.7300000004
 20
350309.4299999997
 10
110157.3700000001
 20
350308.3149999995
 10
110154.9749999996
 20
350307.2850000002
 10
110152.5499999998
 20
350306.3300000001
 10
110150.0899999998
 20
350305.4550000001
 10
110147.6050000004
 20
350304.6649999991
 10
110145.0949999997
 20
350303.9600000009
 10
110142.5750000002
 20
350303.3350000009
 10
110140.0449999999
 20
350302.7850000002
 10
110137.5199999995
 20
350302.3000000008
 10
110134.9900000002
 20
350301.8699999992
 10
110132.4649999998
 20
350301.4900000002
 10
110129.9500000002
 20
350301.1449999995
 10
110127.4400000004
 20
350300.8300000001
 10
110124.9349999996
 20
350300.5350000002
 10
110122.4450000003
 20
350300.2550000009
 10
110119.9599999999
 20
350299.9749999997
 10
110117.4749999996
 20
350299.6950000003
 10
110114.9900000002
 20
350299.4149999992
 10
110112.5049999999
 20
350299.1349999998
 10
110110.0199999995
 20
350298.8550000005
 10
110107.54
 20
350298.5800000001
 10
110105.0549999997
 20
350298.3000000007
 10
110102.5700000003
 20
350298.0199999996
 10
110100.0849999999
 20
350297.7400000002
 10
110097.5999999996
 20
350297.4600000009
 10
110095.1150000002
 20
350297.1799999997
 10
110092.6349999998
 20
350296.9000000004
 10
110090.4567999998
 20
350296.6542000007
 10
110088.8129000002
 20
350296.4410999995
 10
110087.1770000001
 20
350296.1736999993
 10
110085.5508000003
 20
350295.8521999997
 10
110083.9362000003
 20
350295.477
 10
110082.3349000001
 20
350295.0483999998
 10
110080.7487000003
 20
350294.5669999999
 10
110079.1792999999
 20
350294.0332999993
 10
110077.6284999996
 20
350293.4478999991
 10
110076.0979000004
 20
350292.8113000002
1001
AcMap_E615D161-C9D7-11d3-839F-0060B0FB6B57
1071
        1
1071
        2
  0
LWPOLYLINE
  5
2AA
330
1F
100
AcDbEntity
  8
P_SV_SB_FBRD_0
100
AcDbPolyline
 90
      148
 70
     0
 43
0.0
 10
109651.6749999998
 20
349986.9450000004
 10
109654.0049999999
 20
349987.7050000001
 10
109656.3600000003
 20
349988.4450000003
 10
109658.7400000002
 20
349989.1799999998
 10
109661.1299999999
 20
349989.9100000002
 10
109663.5199999995
 20
349990.6400000006
 10
109665.9100000001
 20
349991.3699999992
 10
109668.3049999997
 20
349992.1050000005
 10
109670.6950000003
 20
349992.8350000009
 10
109673.0899999998
 20
349993.5700000003
 10
109675.4850000003
 20
349994.3100000005
 10
109677.8849999997
 20
349995.0600000005
 10
109680.2850000001
 20
349995.8249999993
 10
109682.6849999996
 20
349996.6050000005
 10
109685.0800000001
 20
349997.4049999994
 10
109687.4749999996
 20
349998.2300000005
 10
109689.8650000002
 20
349999.0800000001
 10
109692.25
 20
349999.9649999999
 10
109694.625
 20
350000.8800000009
 10
109696.9900000002
 20
350001.8350000009
 10
109699.3349999999
 20
350002.8200000004
 10
109701.6699999999
 20
350003.8350000009
 10
109703.9900000002
 20
350004.8900000006
 10
109706.2949999999
 20
350005.9700000007
 10
109708.5800000001
 20
350007.0899999999
 10
109710.8550000004
 20
350008.2400000002
 10
109713.1100000003
 20
350009.4199999999
 10
109715.3449999997
 20
350010.6349999998
 10
109717.5650000004
 20
350011.8849999998
 10
109719.7699999995
 20
350013.1600000002
 10
109721.9550000001
 20
350014.4700000007
 10
109724.1200000001
 20
350015.8100000005
 10
109726.2649999996
 20
350017.1799999997
 10
109728.3899999996
 20
350018.5800000001
 10
109730.4950000001
 20
350020.0150000007
 10
109732.5800000001
 20
350021.4749999996
 10
109734.6449999995
 20
350022.9649999999
 10
109736.6900000004
 20
350024.4900000003
 10
109738.7099999999
 20
350026.0399999991
 10
109740.7050000001
 20
350027.6150000003
 10
109742.6799999997
 20
350029.2249999996
 10
109744.6349999998
 20
350030.8599999994
 10
109746.5599999996
 20
350032.5199999995
 10
109748.4649999998
 20
350034.1999999993
 10
109750.3449999997
 20
350035.9049999994
 10
109752.2050000001
 20
350037.6199999992
 10
109754.0449999999
 20
350039.3550000005
 10
109755.8700000001
 20
350041.0999999996
 10
109757.6749999998
 20
350042.8499999997
 10
109759.4749999996
 20
350044.6099999994
 10
109761.2599999997
 20
350046.375
 10
109763.04
 20
350048.1400000006
 10
109764.8150000004
 20
350049.9049999993
 10
109766.585
 20
350051.6699999999
 10
109768.3550000004
 20
350053.4350000005
 10
109770.125
 20
350055.1999999993
 10
109771.9000000004
 20
350056.9649999999
 10
109773.6699999999
 20
350058.7300000005
 10
109775.4400000004
 20
350060.4949999992
 10
109777.21
 20
350062.2599999998
 10
109778.9800000004
 20
350064.0199999996
 10
109780.7549999999
 20
350065.7850000002
 10
109782.5250000004
 20
350067.5500000008
 10
109784.2949999999
 20
350069.3149999995
 10
109786.0650000004
 20
350071.0800000001
 10
109787.8399999998
 20
350072.8450000007
 10
109789.6100000003
 20
350074.6099999994
 10
109791.3799999999
 20
350076.375
 10
109793.1500000004
 20
350078.1349999998
 10
109794.9249999998
 20
350079.9000000004
 10
109796.6900000004
 20
350081.6600000002
 10
109798.4599999999
 20
350083.4149999992
 10
109800.2300000004
 20
350085.1500000004
 10
109802.0049999999
 20
350086.8650000003
 10
109803.7949999999
 20
350088.5600000005
 10
109805.5999999996
 20
350090.2249999997
 10
109807.4199999999
 20
350091.8599999994
 10
109809.2649999997
 20
350093.4550000001
 10
109811.1349999998
 20
350095.0099999998
 10
109813.0350000001
 20
350096.5150000006
 10
109814.9649999998
 20
350097.9700000007
 10
109816.9299999997
 20
350099.3800000009
 10
109818.9349999996
 20
350100.7400000002
 10
109820.9699999997
 20
350102.0449999999
 10
109823.0350000001
 20
350103.3000000008
 10
109825.1299999999
 20
350104.5050000008
 10
109827.2599999998
 20
350105.6600000002
 10
109829.415
 20
350106.7550000009
 10
109831.5949999997
 20
350107.8000000008
 10
109833.8049999997
 20
350108.7899999991
 10
109836.0350000001
 20
350109.7200000007
 10
109838.29
 20
350110.5999999996
 10
109840.5700000003
 20
350111.4250000008
 10
109842.8799999999
 20
350112.2050000001
 10
109845.2149999998
 20
350112.9450000004
 10
109847.5700000003
 20
350113.6649999991
 10
109849.9450000003
 20
350114.3599999994
 10
109852.3349999999
 20
350115.0449999999
 10
109854.7400000002
 20
350115.7349999994
 10
109857.1550000002
 20
350116.4299999997
 10
109859.58
 20
350117.1449999996
 10
109862.0099999997
 20
350117.8849999998
 10
109864.4349999996
 20
350118.6649999991
 10
109866.8650000002
 20
350119.4900000002
 10
109869.2850000001
 20
350120.375
 10
109871.6849999996
 20
350121.3200000003
 10
109874.0650000004
 20
350122.3249999993
 10
109876.415
 20
350123.3900000006
 10
109878.7400000002
 20
350124.5099999998
 10
109881.0350000001
 20
350125.6899999995
 10
109883.3049999997
 20
350126.9250000008
 10
109885.5350000001
 20
350128.2200000007
 10
109887.0801999997
 20
350129.1662000009
 10
109887.4378000004
 20
350129.3687999993
 10
109887.8021999998
 20
350129.5591000002
 10
109888.1728999996
 20
350129.7368000001
 10
109888.5493999999
 20
350129.9016999994
 10
109888.9314000001
 20
350130.0536000002
 10
109889.3183000004
 20
350130.1923999991
 10
109889.7098000003
 20
350130.3178000004
 10
109890.1053999997
 20
350130.4297000003
 10
109890.5044999998
 20
350130.5280000009
 10
109890.9068
 20
350130.6126000006
 10
109891.3117000004
 20
350130.6832999997
 10
109891.7187999999
 20
350130.7401999999
 10
109892.1277
 20
350130.7829999998
 10
109892.5377000002
 20
350130.8118999992
 10
109892.9484999999
 20
350130.8267000001
 10
109893.3596000001
 20
350130.8272999991
 10
109893.7704999996
 20
350130.8139999994
 10
109894.1805999996
 20
350130.7864999995
 10
109894.5895999996
 20
350130.7449999992
 10
109894.9968999997
 20
350130.6896000002
 10
109895.4020999996
 20
350130.6202000007
 10
109895.8046000004
 20
350130.5370000005
 10
109896.2040999997
 20
350130.4399999995
 10
109896.5999999996
 20
350130.3293999992
 10
109896.9918999998
 20
350130.2052999996
 10
109897.3793000001
 20
350130.0679000002
 10
109897.7618000004
 20
350129.9173000008
 10
109898.1388999996
 20
350129.7535999995
 10
109898.5102000003
 20
350129.5771999993
 10
109898.8751999996
 20
350129.3881000001
 10
109899.2335000001
 20
350129.1866999995
 10
109899.5848000003
 20
350128.9729999994
 10
109899.9283999996
 20
350128.7475000005
 10
109900.2642000001
 20
350128.5103999991
 10
109900.5916999997
 20
350128.2619000003
1001
AcMap_E615D161-C9D7-11d3-839F-0060B0FB6B57
1071
        1
1071
        2
  0
LWPOLYLINE
  5
2AB
330
1F
100
AcDbEntity
  8
P_SV_SB_FBRD_0
100
AcDbPolyline
 90
       35
 70
     0
 43
0.0
 10
109596.0696
 20
349866.0329999998
 10
109597.2300000004
 20
349866.9199999999
 10
109599.2800000002
 20
349868.7300000005
 10
109601.1900000004
 20
349870.6799999997
 10
109602.9550000001
 20
349872.7650000006
 10
109604.5700000003
 20
349874.9700000007
 10
109606.0250000004
 20
349877.2799999994
 10
109607.3099999996
 20
349879.6899999995
 10
109608.4199999999
 20
349882.1899999995
 10
109609.3449999997
 20
349884.7550000009
 10
109610.0899999998
 20
349887.375
 10
109610.6550000002
 20
349890.0099999998
 10
109611.0700000003
 20
349892.6449999995
 10
109611.3550000004
 20
349895.2699999996
 10
109611.54
 20
349897.8800000009
 10
109611.6349999998
 20
349900.4649999998
 10
109611.6749999998
 20
349903.0250000004
 10
109611.6799999997
 20
349905.5600000005
 10
109611.665
 20
349908.0649999995
 10
109611.6550000002
 20
349910.5600000006
 10
109611.6500000004
 20
349913.0399999991
 10
109611.665
 20
349915.5150000007
 10
109611.7050000001
 20
349917.9749999996
 10
109611.7750000003
 20
349920.4250000008
 10
109611.8849999998
 20
349922.8650000003
 10
109612.04
 20
349925.295
 10
109612.2450000001
 20
349927.7249999997
 10
109612.4950000001
 20
349930.1449999996
 10
109612.7999999998
 20
349932.5600000005
 10
109613.1500000004
 20
349934.9700000007
 10
109613.5449999999
 20
349937.375
 10
109613.9900000002
 20
349939.7650000006
 10
109614.4850000003
 20
349942.1500000004
 10
109615.0250000003
 20
349944.5250000004
 10
109615.6150000002
 20
349946.8900000006
1001
AcMap_E615D161-C9D7-11d3-839F-0060B0FB6B57
1071
        1
1071
        2
  0
LWPOLYLINE
  5
2AC
330
1F
100
AcDbEntity
  8
P_SV_SB_FBRD_0
100
AcDbPolyline
 90
       42
 70
     0
 43
0.0
 10
109455.8305000001
 20
349803.9102999996
 10
109455.8899999996
 20
349803.9450000003
 10
109458.0700000003
 20
349805.2650000006
 10
109460.2199999997
 20
349806.6050000005
 10
109461.3247999996
 20
349807.3057000004
 10
109461.4708000002
 20
349807.3975000009
 10
109461.6198000004
 20
349807.4842000008
 10
109461.7717000004
 20
349807.5658
 10
109461.9264000002
 20
349807.642000001
 10
109462.0835999995
 20
349807.7128999997
 10
109462.2432000003
 20
349807.7784000003
 10
109462.4049000004
 20
349807.8381999992
 10
109462.5685999999
 20
349807.8925000001
 10
109462.7340000001
 20
349807.9410999995
 10
109462.9009999996
 20
349807.9839999993
 10
109463.0695000002
 20
349808.0209999997
 10
109463.2390000001
 20
349808.0523000006
 10
109463.4095999999
 20
349808.0777000003
 10
109463.5810000002
 20
349808.0971000009
 10
109463.7528999997
 20
349808.1107000001
 10
109463.9250999996
 20
349808.1183000002
 10
109464.0975999999
 20
349808.1199999993
 10
109464.2699999995
 20
349808.1157000009
 10
109464.4420999996
 20
349808.1054999996
 10
109464.6138000004
 20
349808.0894000009
 10
109464.7847999995
 20
349808.0672999993
 10
109464.9550000001
 20
349808.0394000002
 10
109465.1240999996
 20
349808.0055999999
 10
109465.2918999996
 20
349807.9660000001
 10
109465.4583
 20
349807.9206000008
 10
109465.6229999997
 20
349807.8695999999
 10
109465.7858999995
 20
349807.8127999995
 10
109465.9467000002
 20
349807.7504999992
 10
109466.1052000001
 20
349807.6827000007
 10
109466.2613000004
 20
349807.6095000003
 10
109466.4148000004
 20
349807.5308999997
 10
109466.5654999995
 20
349807.4471000005
 10
109466.7132000001
 20
349807.3581000008
 10
109466.8578000003
 20
349807.2641000003
 10
109466.9989999998
 20
349807.1652000007
 10
109467.1368000004
 20
349807.0614
 10
109467.2708999999
 20
349806.9529999998
1001
AcMap_E615D161-C9D7-11d3-839F-0060B0FB6B57
1071
        1
1071
        2
  0
LWPOLYLINE
  5
2AD
330
1F
100
AcDbEntity
  8
P_SV_SB_FBRD_0
100
AcDbPolyline
 90
       33
 70
     0
 43
0.0
 10
109826.1497999998
 20
350112.3855000008
 10
109826.5379999997
 20
350112.5833999999
 10
109828.8651999999
 20
350113.6974999998
 10
109831.2224000003
 20
350114.7522999998
 10
109833.5993999997
 20
350115.7476000004
 10
109836.0064000003
 20
350116.6837000009
 10
109838.4301000004
 20
350117.5610000007
 10
109840.8568000002
 20
350118.3797999993
 10
109843.2871000003
 20
350119.1550999992
 10
109845.7163000004
 20
350119.8917999995
 10
109848.1393999997
 20
350120.6048000008
 10
109850.5502000004
 20
350121.2985999995
 10
109852.9550000001
 20
350121.9835999999
 10
109855.3448999999
 20
350122.67
 10
109857.7180000003
 20
350123.3724000007
 10
109860.0684000002
 20
350124.0905000009
 10
109862.3985000001
 20
350124.8354000003
 10
109864.7079999996
 20
350125.6219999996
 10
109866.9847999997
 20
350126.4550000001
 10
109869.2324000001
 20
350127.3388000001
 10
109871.4610999999
 20
350128.2788999994
 10
109873.6640999997
 20
350129.2793000005
 10
109875.841
 20
350130.3299000003
 10
109877.9929999998
 20
350131.4362000004
 10
109880.1146999998
 20
350132.5930000004
 10
109882.2116
 20
350133.8057000004
 10
109884.2729000002
 20
350135.0687000007
 10
109886.3037999999
 20
350136.3822000008
 10
109888.2998000001
 20
350137.7466000002
 10
109890.2604999999
 20
350139.1615999993
 10
109892.1851000003
 20
350140.6264999994
 10
109894.0743000004
 20
350142.1368000005
 10
109894.1130999997
 20
350142.1693999991
1001
AcMap_E615D161-C9D7-11d3-839F-0060B0FB6B57
1071
        1
1071
        2
  0
LWPOLYLINE
  5
2AE
330
1F
100
AcDbEntity
  8
P_SV_SB_FBRD_0
100
AcDbPolyline
 90
        7
 70
     0
 43
0.0
 10
110474.4368000002
 20
350430.0702999998
 10
110480.0663999999
 20
350429.0997000002
 10
110482.5280999997
 20
350428.6744
 10
110484.9928999999
 20
350428.2445000001
 10
110487.4581000004
 20
350427.8193999995
 10
110493.8947
 20
350426.6842999999
 10
110489.9204000002
 20
350427.3890000005
1001
AcMap_E615D161-C9D7-11d3-839F-0060B0FB6B57
1071
        1
1071
        2
  0
LWPOLYLINE
  5
2AF
330
1F
100
AcDbEntity
  8
P_SV_SB_FBRD_0
100
AcDbPolyline
 90
      121
 70
     0
 43
0.0
 10
110199.7581000002
 20
350349.5899000001
 10
110200.875
 20
350350.5899999999
 10
110202.7350000003
 20
350352.2550000008
 10
110204.5999999996
 20
350353.9250000008
 10
110206.46
 20
350355.5950000007
 10
110208.3200000003
 20
350357.2599999998
 10
110210.1849999996
 20
350358.9299999998
 10
110212.0449999999
 20
350360.5950000007
 10
110213.9100000001
 20
350362.2650000006
 10
110215.7699999995
 20
350363.9350000006
 10
110217.6349999997
 20
350365.5999999997
 10
110219.4950000001
 20
350367.2699999996
 10
110221.3550000004
 20
350368.9399999995
 10
110223.2199999997
 20
350370.6050000005
 10
110225.0800000001
 20
350372.2750000004
 10
110226.9450000003
 20
350373.9399999995
 10
110228.8049999997
 20
350375.6099999994
 10
110230.665
 20
350377.2799999994
 10
110232.5300000003
 20
350378.9450000003
 10
110234.3899999997
 20
350380.6150000003
 10
110236.2549999999
 20
350382.2850000002
 10
110238.1150000002
 20
350383.9499999993
 10
110239.9749999996
 20
350385.6199999992
 10
110241.8399999998
 20
350387.2850000002
 10
110243.7000000002
 20
350388.9550000001
 10
110245.5650000004
 20
350390.625
 10
110247.4249999998
 20
350392.2899999992
 10
110249.29
 20
350393.9600000009
 10
110251.1500000004
 20
350395.6300000009
 10
110253.0099999998
 20
350397.295
 10
110254.875
 20
350398.9649999998
 10
110256.7350000003
 20
350400.6300000008
 10
110258.5999999996
 20
350402.3000000008
 10
110260.46
 20
350403.9700000007
 10
110262.3200000003
 20
350405.6349999998
 10
110264.1849999996
 20
350407.3049999997
 10
110266.0449999999
 20
350408.9749999997
 10
110267.9100000001
 20
350410.6400000007
 10
110269.7699999995
 20
350412.3100000005
 10
110271.6349999998
 20
350413.9800000004
 10
110273.4950000001
 20
350415.6449999996
 10
110275.3550000004
 20
350417.3149999995
 10
110277.2199999997
 20
350418.9800000005
 10
110279.0899999998
 20
350420.6549999994
 10
110280.9699999997
 20
350422.3249999993
 10
110282.8700000001
 20
350423.9849999994
 10
110284.79
 20
350425.6400000006
 10
110286.7300000004
 20
350427.2750000004
 10
110288.705
 20
350428.8900000006
 10
110290.7149999998
 20
350430.4749999997
 10
110292.7549999999
 20
350432.0299999994
 10
110294.8399999998
 20
350433.5399999991
 10
110296.9649999998
 20
350435.0099999998
 10
110299.1399999996
 20
350436.4199999999
 10
110301.3600000003
 20
350437.7750000004
 10
110303.625
 20
350439.0549999997
 10
110305.9249999998
 20
350440.2699999996
 10
110308.2649999996
 20
350441.4100000002
 10
110310.6349999998
 20
350442.4749999996
 10
110313.04
 20
350443.4649999999
 10
110315.4800000004
 20
350444.3800000009
 10
110317.9400000004
 20
350445.2200000007
 10
110320.4249999998
 20
350445.9800000005
 10
110322.9400000004
 20
350446.6649999991
 10
110325.4699999997
 20
350447.2699999996
 10
110328.0149999997
 20
350447.795
 10
110330.5800000001
 20
350448.2400000003
 10
110333.1550000002
 20
350448.6050000005
 10
110335.7400000002
 20
350448.8900000006
 10
110338.3349999999
 20
350449.0950000007
 10
110340.9299999997
 20
350449.2149999999
 10
110343.5300000002
 20
350449.2550000009
 10
110346.125
 20
350449.2200000007
 10
110348.705
 20
350449.1150000003
 10
110351.2800000002
 20
350448.9450000003
 10
110353.835
 20
350448.7200000007
 10
110356.3799999999
 20
350448.4450000003
 10
110358.9100000001
 20
350448.125
 10
110361.4299999997
 20
350447.7750000004
 10
110363.9349999996
 20
350447.3949999996
 10
110366.4249999998
 20
350446.9900000002
 10
110368.9100000001
 20
350446.5749999993
 10
110371.3799999999
 20
350446.1500000004
 10
110373.8449999997
 20
350445.7249999997
 10
110376.3099999996
 20
350445.3000000007
 10
110378.7699999995
 20
350444.8699999992
 10
110381.2350000003
 20
350444.4450000003
 10
110383.7000000002
 20
350444.0150000006
 10
110386.1600000001
 20
350443.5899999999
 10
110388.625
 20
350443.1649999992
 10
110391.0899999998
 20
350442.7349999994
 10
110393.5499999998
 20
350442.3100000006
 10
110396.0149999997
 20
350441.8849999999
 10
110398.4800000004
 20
350441.4550000001
 10
110400.9400000004
 20
350441.0299999994
 10
110403.4050000002
 20
350440.6050000004
 10
110405.8700000001
 20
350440.1750000007
 10
110408.33
 20
350439.75
 10
110410.7949999999
 20
350439.3249999993
 10
110413.2599999998
 20
350438.8949999996
 10
110415.7199999997
 20
350438.4700000007
 10
110418.1849999996
 20
350438.0449999999
 10
110420.6500000004
 20
350437.6150000002
 10
110423.1100000003
 20
350437.1899999995
 10
110425.5750000002
 20
350436.7650000006
 10
110428.04
 20
350436.3350000009
 10
110430.5
 20
350435.9100000002
 10
110432.9649999998
 20
350435.4849999995
 10
110435.4299999997
 20
350435.0549999998
 10
110437.8899999996
 20
350434.6300000008
 10
110440.3550000004
 20
350434.1999999993
 10
110442.8200000003
 20
350433.7750000004
 10
110445.2800000002
 20
350433.3499999996
 10
110447.7450000001
 20
350432.9199999999
 10
110450.2099999999
 20
350432.4949999992
 10
110452.6699999999
 20
350432.0700000003
 10
110455.1349999998
 20
350431.6400000006
 10
110457.5999999996
 20
350431.2149999999
 10
110460.0599999996
 20
350430.7899999992
 10
110461.7686999999
 20
350430.4919000008
 10
110464.3974000001
 20
350430.0127000008
1001
AcMap_E615D161-C9D7-11d3-839F-0060B0FB6B57
1071
        1
1071
        2
  0
LWPOLYLINE
  5
2B0
330
1F
100
AcDbEntity
  8
P_SV_SB_FBRD_0
100
AcDbPolyline
 90
       71
 70
     0
 43
0.0
 10
110053.6003
 20
350264.5185000002
 10
110053.4199999999
 20
350266.4550000001
 10
110053.3550000004
 20
350269.1999999993
 10
110053.5099999998
 20
350271.9649999999
 10
110053.9000000003
 20
350274.7100000009
 10
110054.5099999997
 20
350277.4100000002
 10
110055.3499999996
 20
350280.0500000008
 10
110056.4000000003
 20
350282.6099999995
 10
110057.665
 20
350285.0749999993
 10
110059.1299999999
 20
350287.4299999997
 10
110060.7800000003
 20
350289.6500000004
 10
110062.6150000002
 20
350291.7249999997
 10
110064.6150000002
 20
350293.6449999996
 10
110066.7699999995
 20
350295.3849999998
 10
110069.0599999996
 20
350296.9450000004
 10
110071.4699999997
 20
350298.3049999997
 10
110073.9749999996
 20
350299.4600000009
 10
110076.5300000002
 20
350300.4149999991
 10
110079.1100000003
 20
350301.1899999995
 10
110081.7000000002
 20
350301.8149999995
 10
110084.2800000003
 20
350302.3149999995
 10
110086.8449999997
 20
350302.7249999997
 10
110089.3849999998
 20
350303.0600000005
 10
110091.9000000003
 20
350303.3599999994
 10
110094.3899999996
 20
350303.6400000006
 10
110096.875
 20
350303.9199999999
 10
110099.3600000003
 20
350304.1999999993
 10
110101.8449999997
 20
350304.4800000005
 10
110104.3250000002
 20
350304.7550000009
 10
110106.8099999996
 20
350305.0350000002
 10
110109.2949999999
 20
350305.3149999995
 10
110111.7800000002
 20
350305.5950000007
 10
110114.2649999997
 20
350305.875
 10
110116.75
 20
350306.1549999993
 10
110119.2350000003
 20
350306.4350000006
 10
110121.7149999998
 20
350306.7149999999
 10
110124.1950000003
 20
350306.9949999992
 10
110126.6550000002
 20
350307.2850000002
 10
110129.1100000003
 20
350307.5899999999
 10
110131.5449999999
 20
350307.9250000008
 10
110133.9649999999
 20
350308.2899999991
 10
110136.3650000002
 20
350308.6999999993
 10
110138.7450000001
 20
350309.1549999993
 10
110141.1050000004
 20
350309.67
 10
110143.4349999996
 20
350310.2449999992
 10
110145.7400000002
 20
350310.8949999996
 10
110148.0199999995
 20
350311.6199999992
 10
110150.2750000004
 20
350312.4199999999
 10
110152.5
 20
350313.2949999999
 10
110154.6950000003
 20
350314.2400000002
 10
110156.8550000004
 20
350315.2599999998
 10
110158.9850000003
 20
350316.3550000005
 10
110161.0750000002
 20
350317.5150000006
 10
110163.125
 20
350318.75
 10
110165.1399999997
 20
350320.0500000008
 10
110167.125
 20
350321.4149999991
 10
110169.08
 20
350322.8399999999
 10
110171.0099999998
 20
350324.3149999995
 10
110172.915
 20
350325.835000001
 10
110174.8049999997
 20
350327.3949999996
 10
110176.6749999998
 20
350328.9900000002
 10
110178.54
 20
350330.6099999994
 10
110180.3949999995
 20
350332.25
 10
110182.2549999999
 20
350333.9100000002
 10
110184.1150000002
 20
350335.5749999993
 10
110185.9749999996
 20
350337.2449999992
 10
110187.8399999998
 20
350338.9100000002
 10
110189.7000000002
 20
350340.5800000001
 10
110191.5650000004
 20
350342.25
 10
110193.4249999998
 20
350343.9149999991
 10
110193.4726999998
 20
350343.9576999993
1001
AcMap_E615D161-C9D7-11d3-839F-0060B0FB6B57
1071
        1
1071
        2
  0
LWPOLYLINE
  5
2B1
330
1F
100
AcDbEntity
  8
P_SV_SB_FBRD_0
100
AcDbPolyline
 90
       10
 70
     0
 43
0.0
 10
109884.2445999999
 20
350135.0544000008
 10
109884.2699999995
 20
350135.0700000003
 10
109886.2999999998
 20
350136.3849999998
 10
109888.2999999998
 20
350137.75
 10
109890.2599999997
 20
350139.1649999991
 10
109892.1849999996
 20
350140.625
 10
109894.0750000002
 20
350142.1349999998
 10
109894.1224999996
 20
350142.1751000006
 10
109901.1413000002
 20
350148.8596000001
 10
109912.1864999998
 20
350160.1060000007
1001
AcMap_E615D161-C9D7-11d3-839F-0060B0FB6B57
1071
        1
1071
        2
  0
LWPOLYLINE
  5
2B2
330
1F
100
AcDbEntity
  8
P_SV_SB_FBRD_0
100
AcDbPolyline
 90
      112
 70
     0
 43
0.0
 10
109638.6460999995
 20
349988.5996000003
 10
109639.9450000003
 20
349989.2599999998
 10
109642.335
 20
349990.3499999997
 10
109644.75
 20
349991.3450000007
 10
109647.1749999998
 20
349992.2599999998
 10
109649.5999999996
 20
349993.1050000005
 10
109652.0250000003
 20
349993.9000000004
 10
109654.4400000004
 20
349994.6549999993
 10
109656.8399999998
 20
349995.3949999996
 10
109659.2300000004
 20
349996.1250000001
 10
109661.6200000001
 20
349996.8550000005
 10
109664.0099999998
 20
349997.5899999999
 10
109666.4000000004
 20
349998.3200000003
 10
109668.79
 20
349999.0500000008
 10
109671.1749999998
 20
349999.7850000002
 10
109673.5599999996
 20
350000.5199999995
 10
109675.9299999997
 20
350001.2599999998
 10
109678.2949999999
 20
350002.0099999999
 10
109680.6500000004
 20
350002.7750000004
 10
109682.9950000001
 20
350003.5600000006
 10
109685.3300000001
 20
350004.3650000002
 10
109687.6449999995
 20
350005.1899999995
 10
109689.9500000002
 20
350006.0449999999
 10
109692.2400000002
 20
350006.9299999997
 10
109694.5149999996
 20
350007.8450000007
 10
109696.7800000002
 20
350008.795
 10
109699.0300000002
 20
350009.7750000004
 10
109701.2649999997
 20
350010.7899999991
 10
109703.4850000003
 20
350011.8350000009
 10
109705.6849999996
 20
350012.9100000002
 10
109707.875
 20
350014.0199999996
 10
109710.0499999998
 20
350015.1549999993
 10
109712.2050000001
 20
350016.3249999993
 10
109714.3449999997
 20
350017.5299999994
 10
109716.4699999997
 20
350018.7599999998
 10
109718.5700000003
 20
350020.0199999996
 10
109720.6600000001
 20
350021.3100000006
 10
109722.7249999996
 20
350022.6349999998
 10
109724.7750000003
 20
350023.9849999994
 10
109726.8049999997
 20
350025.3650000003
 10
109728.8150000004
 20
350026.7699999996
 10
109730.7999999998
 20
350028.2100000009
 10
109732.7699999995
 20
350029.6750000007
 10
109734.7149999998
 20
350031.1649999992
 10
109736.6399999996
 20
350032.6899999995
 10
109738.5449999999
 20
350034.2349999994
 10
109740.4249999998
 20
350035.8100000005
 10
109742.2850000001
 20
350037.4149999991
 10
109744.1299999999
 20
350039.045
 10
109745.9550000001
 20
350040.6999999993
 10
109747.7699999995
 20
350042.375
 10
109749.5700000003
 20
350044.0700000003
 10
109751.3600000003
 20
350045.7799999993
 10
109753.1399999996
 20
350047.5050000009
 10
109754.915
 20
350049.2449999992
 10
109756.6849999996
 20
350050.9949999992
 10
109758.455
 20
350052.75
 10
109760.2249999996
 20
350054.5099999998
 10
109761.9950000001
 20
350056.2750000004
 10
109763.7699999995
 20
350058.0399999992
 10
109765.54
 20
350059.8049999997
 10
109767.3099999996
 20
350061.5700000003
 10
109769.0800000001
 20
350063.3350000009
 10
109770.8550000004
 20
350065.0999999996
 10
109772.625
 20
350066.8650000002
 10
109774.3949999995
 20
350068.6250000001
 10
109776.165
 20
350070.3900000007
 10
109777.9349999996
 20
350072.1549999994
 10
109779.7099999999
 20
350073.92
 10
109781.4800000004
 20
350075.6850000005
 10
109783.25
 20
350077.4499999993
 10
109785.0199999995
 20
350079.2149999999
 10
109786.7949999999
 20
350080.9800000005
 10
109788.5650000004
 20
350082.7400000002
 10
109790.3349999999
 20
350084.5050000008
 10
109792.1100000003
 20
350086.2750000004
 10
109793.8949999995
 20
350088.0399999991
 10
109795.6950000003
 20
350089.8049999997
 10
109797.5099999998
 20
350091.5600000006
 10
109799.3550000004
 20
350093.3049999997
 10
109801.2249999996
 20
350095.0350000002
 10
109803.125
 20
350096.7349999994
 10
109805.0599999996
 20
350098.4100000002
 10
109807.0350000001
 20
350100.0549999997
 10
109809.0549999997
 20
350101.6549999994
 10
109811.1150000002
 20
350103.2100000009
 10
109813.2149999998
 20
350104.7100000009
 10
109815.3499999996
 20
350106.1600000002
 10
109817.5199999995
 20
350107.5549999998
 10
109819.7300000004
 20
350108.9000000004
 10
109821.9649999998
 20
350110.1850000006
 10
109824.2350000003
 20
350111.4100000002
 10
109826.5350000001
 20
350112.5850000009
 10
109828.8650000002
 20
350113.6999999993
 10
109831.2199999997
 20
350114.7550000008
 10
109833.5999999996
 20
350115.75
 10
109836.0049999999
 20
350116.6850000006
 10
109838.4299999997
 20
350117.5600000006
 10
109840.8550000004
 20
350118.3800000009
 10
109843.2850000001
 20
350119.1549999994
 10
109845.7149999998
 20
350119.8900000006
 10
109848.1349999998
 20
350120.6050000005
 10
109850.5499999998
 20
350121.2949999999
 10
109852.9550000001
 20
350121.9849999994
 10
109855.3449999997
 20
350122.67
 10
109857.7149999998
 20
350123.3699999992
 10
109860.0700000003
 20
350124.0899999999
 10
109862.4000000004
 20
350124.835000001
 10
109864.7050000001
 20
350125.625
 10
109866.9800000004
 20
350126.4550000001
 10
109869.2350000003
 20
350127.3399999999
 10
109871.0198999997
 20
350128.0941000004
1001
AcMap_E615D161-C9D7-11d3-839F-0060B0FB6B57
1071
        1
1071
        2
  0
LWPOLYLINE
  5
2B3
330
1F
100
AcDbEntity
  8
P_SV_SB_FBRD_0
100
AcDbPolyline
 90
       36
 70
     0
 43
0.0
 10
109496.0828
 20
349834.7312000003
 10
109496.1749999998
 20
349834.7699999996
 10
109498.5350000001
 20
349835.7249999997
 10
109500.9000000004
 20
349836.6449999995
 10
109503.2649999996
 20
349837.5399999992
 10
109505.6349999998
 20
349838.4100000002
 10
109508.0049999999
 20
349839.2650000006
 10
109510.3700000001
 20
349840.1050000005
 10
109512.7300000004
 20
349840.9399999995
 10
109515.085
 20
349841.7750000004
 10
109517.4450000003
 20
349842.6050000005
 10
109519.7999999998
 20
349843.4399999995
 10
109522.1600000001
 20
349844.2699999996
 10
109524.5149999996
 20
349845.1050000005
 10
109526.875
 20
349845.9350000005
 10
109529.2300000004
 20
349846.7699999995
 10
109531.5899999998
 20
349847.5999999997
 10
109533.9450000003
 20
349848.4350000005
 10
109536.3049999997
 20
349849.2650000006
 10
109538.6600000001
 20
349850.0999999997
 10
109541.0199999995
 20
349850.9299999997
 10
109543.375
 20
349851.7650000006
 10
109545.7300000004
 20
349852.5950000007
 10
109548.0899999998
 20
349853.4299999997
 10
109550.4450000003
 20
349854.2599999999
 10
109552.8049999997
 20
349855.0950000007
 10
109555.1600000001
 20
349855.9250000008
 10
109557.5199999995
 20
349856.7599999998
 10
109559.875
 20
349857.5899999999
 10
109562.2350000003
 20
349858.4250000007
 10
109564.5899999998
 20
349859.2550000009
 10
109566.9500000002
 20
349860.0899999999
 10
109569.3049999997
 20
349860.9199999999
 10
109571.665
 20
349861.7550000009
 10
109574.0199999995
 20
349862.5850000009
 10
109574.5900999997
 20
349862.7876999993
1001
AcMap_E615D161-C9D7-11d3-839F-0060B0FB6B57
1071
        1
1071
        2
  0
LWPOLYLINE
  5
2B4
330
1F
100
AcDbEntity
  8
P_SV_SB_FBRD_0
100
AcDbPolyline
 90
       40
 70
     0
 43
0.0
 10
109400.8650000002
 20
349785.3200000003
 10
109403.1500000004
 20
349786.335000001
 10
109405.4299999997
 20
349787.3550000005
 10
109407.7149999998
 20
349788.3750000001
 10
109409.9950000001
 20
349789.3949999996
 10
109412.2800000002
 20
349790.4149999992
 10
109414.5650000004
 20
349791.4299999997
 10
109416.8449999997
 20
349792.4499999993
 10
109419.1299999999
 20
349793.4700000007
 10
109421.4100000001
 20
349794.4900000002
 10
109423.6950000003
 20
349795.5099999998
 10
109425.9749999996
 20
349796.5250000004
 10
109428.2599999998
 20
349797.5449999999
 10
109430.5449999999
 20
349798.5649999995
 10
109432.8200000003
 20
349799.5850000009
 10
109435.0899999998
 20
349800.6050000004
 10
109437.3399999998
 20
349801.6349999998
 10
109439.58
 20
349802.6799999998
 10
109441.7999999998
 20
349803.7400000003
 10
109444.0
 20
349804.8300000001
 10
109446.1749999998
 20
349805.9499999993
 10
109448.3250000002
 20
349807.0999999997
 10
109450.4550000001
 20
349808.2949999999
 10
109452.5650000004
 20
349809.5299999994
 10
109454.665
 20
349810.8049999997
 10
109456.7599999997
 20
349812.1050000005
 10
109458.8449999997
 20
349813.4299999998
 10
109460.9299999997
 20
349814.7750000004
 10
109463.0099999998
 20
349816.1349999998
 10
109465.0949999997
 20
349817.5099999998
 10
109467.1900000004
 20
349818.8849999998
 10
109469.2949999999
 20
349820.2550000009
 10
109471.4100000001
 20
349821.625
 10
109473.5449999999
 20
349822.9800000005
 10
109475.7000000002
 20
349824.3200000003
 10
109477.8799999999
 20
349825.6349999998
 10
109480.0849999999
 20
349826.9199999999
 10
109482.3150000004
 20
349828.1750000007
 10
109484.5750000002
 20
349829.3849999998
 10
109484.8973000003
 20
349829.5493
1001
AcMap_E615D161-C9D7-11d3-839F-0060B0FB6B57
1071
        1
1071
        2
  0
ENDSEC
  0
SECTION
  2
OBJECTS
  0
DICTIONARY
  5
C
330
0
100
AcDbDictionary
281
     1
  3
ACAD_CIP_PREVIOUS_PRODUCT_INFO
350
1A5
  3
ACAD_COLOR
350
73
  3
ACAD_DETAILVIEWSTYLE
350
1AB
  3
ACAD_GROUP
350
D
  3
ACAD_LAYOUT
350
1A
  3
ACAD_MATERIAL
350
72
  3
ACAD_MLEADERSTYLE
350
D7
  3
ACAD_MLINESTYLE
350
17
  3
ACAD_PLOTSETTINGS
350
19
  3
ACAD_PLOTSTYLENAME
350
E
  3
ACAD_SCALELIST
350
B6
  3
ACAD_SECTIONVIEWSTYLE
350
1A8
  3
ACAD_TABLESTYLE
350
86
  3
ACAD_VISUALSTYLE
350
99
  3
ACDB_RECOMPOSE_DATA
350
2BB
  3
AcDbVariableDictionary
350
66
  3
AcDsDecomposeData
350
2C2
  3
AcMap_E615D15E-C9D7-11d3-839F-0060B0FB6B57
350
266
  3
ADE_QUERY_LIBRARY
350
21B
  3
ASE_INDEX_DICTIONARY
350
2B6
  3
Autodesk_MAP
350
204
1001
ADE
1000
ADE02C004
1000
[Query]
1000
CaseSensitiveMatch=0
1000
SaveCurrQueryInSession=1
1000
MkSelSetWithQryObj=0
1000
ShowBlockAsInsPt=0
1000
CreateAssociativeHatchObjects=0
1000
ReferenceBoundaryForAreaLocation=1
1000
ShowImageAsBoundary=1
1000
DefaultJoinOperator=2
1000
ColorForAdd=red
1000
ColorForRemove=red
1000
BlockLocnForQuery=1
1000
TextLocnForQuery=1
1000
IncludeAllObjectsInGroups=0
1000
AlwaysUseLibraryDefinitions=0
1000
PreviewDefinitionsFrom=2
1000
[Save Back]
1000
RedefineBlockDefinitions=1
1000
RedefineLayerDefinitions=1
1000
RedefineTextStyleDefinitions=1
1000
RemoveUnusedGroups=1
1000
EraseSavedBackObjects=1
1000
RemoveLockAfterSave=1
1000
CreateHistoryFileOfChanges=0
1000
CreateBackupFileOfSourceDwg=1
1000
DontAddObjectsToSaveSet=0
1000
MarkObjectsForEditingWithoutPrompting=0
1000
FdoDontAddObjsToSvSet=0
1000
FdoEditWithoutPrompt=1
1000
FdoRemUnusedGrps=1
1000
FdoEraseSvdBkObjs=1
1000
FdoRemoveLockOnSave=1
1000
FdoTesselationMaxPointsDistance=0
1000
FdoTesselationMaxCurvesDistance=0
1000
[Coordinate Transformation]
1000
RestoreLastActiveDwgsOnStartup=1
1000
ActivateDwgsOnAttach=1
1000
AdjustSizesAndScalesForChangesInUnits=1
1000
AdjustRotationsForMapDistortions=1
1000
AdjustSizesAndScalesForMapDistortions=1
1000
AdjustElevations=1
1000
AdjustZeroRotationObjects=1
1000
ReconnectDbOnWSOpen=1
1000
NoOfSQLConditionsInHistory=10
  0
SUN
  5
217
330
94
100
AcDbSun
 90
        1
290
     1
 63
     7
421
 16777215
 40
1.0
291
     1
 91
  2458230
 92
 36000000
292
     0
 70
     0
 71
   256
280
     1
1001
ACAD
1000
AcDbSavedByObjectVersion
1070
     0
  0
DICTIONARY
  5
18E
330
2
100
AcDbDictionary
280
     1
281
     1
  3
ACAD_LAYERSTATES
360
18F
  0
DICTIONARY
  5
E6
330
10
100
AcDbDictionary
280
     1
281
     1
  0
DICTIONARY
  5
15D
330
1F
100
AcDbDictionary
280
     1
281
     1
  3
ACAD_SORTENTS
360
214
  0
XRECORD
  5
1A5
102
{ACAD_REACTORS
330
C
102
}
330
C
100
AcDbXrecord
280
     1
300
MAP
300
2019
300
87091MAP_2019_0F
  0
DICTIONARY
  5
73
102
{ACAD_REACTORS
330
C
102
}
330
C
100
AcDbDictionary
281
     1
  0
DICTIONARY
  5
1AB
102
{ACAD_REACTORS
330
C
102
}
330
C
100
AcDbDictionary
281
     1
  3
Imperial24
350
1AC
  3
Metric50
350
239
  0
DICTIONARY
  5
D
102
{ACAD_REACTORS
330
C
102
}
330
C
100
AcDbDictionary
281
     1
  0
DICTIONARY
  5
1A
102
{ACAD_REACTORS
330
C
102
}
330
C
100
AcDbDictionary
281
     1
  3
Layout1
350
59
  3
Layout2
350
5E
  3
Model
350
22
  0
DICTIONARY
  5
72
102
{ACAD_REACTORS
330
C
102
}
330
C
100
AcDbDictionary
281
     1
  3
ByBlock
350
97
  3
ByLayer
350
96
  3
Global
350
98
  0
DICTIONARY
  5
D7
102
{ACAD_REACTORS
330
C
102
}
330
C
100
AcDbDictionary
281
     1
  3
Beschriftung
350
E5
  3
Standard
350
D8
  0
DICTIONARY
  5
17
102
{ACAD_REACTORS
330
C
102
}
330
C
100
AcDbDictionary
281
     1
  3
Standard
350
18
  0
DICTIONARY
  5
19
102
{ACAD_REACTORS
330
C
102
}
330
C
100
AcDbDictionary
281
     1
  0
ACDBDICTIONARYWDFLT
  5
E
102
{ACAD_REACTORS
330
C
102
}
330
C
100
AcDbDictionary
281
     1
  3
Normal
350
F
100
AcDbDictionaryWithDefault
340
F
  0
DICTIONARY
  5
B6
102
{ACAD_REACTORS
330
C
102
}
330
C
100
AcDbDictionary
281
     1
  3
A0
350
B7
  3
A1
350
124
  3
A2
350
125
  3
A3
350
126
  3
A4
350
127
  3
A5
350
128
  3
A6
350
129
  3
A7
350
12A
  3
A8
350
12B
  3
A9
350
12C
  3
B0
350
12D
  3
B1
350
12E
  3
B2
350
12F
  3
B3
350
130
  3
B4
350
131
  3
B5
350
132
  3
B6
350
133
  3
B7
350
134
  3
B8
350
135
  3
B9
350
136
  3
C0
350
137
  3
C1
350
138
  3
C2
350
139
  3
C3
350
13A
  3
C4
350
13B
  3
C5
350
13C
  3
C6
350
13D
  3
C7
350
13E
  3
C8
350
13F
  3
C9
350
140
  3
D0
350
141
  3
D1
350
142
  3
D2
350
143
  0
DICTIONARY
  5
1A8
102
{ACAD_REACTORS
330
C
102
}
330
C
100
AcDbDictionary
281
     1
  3
Imperial24
350
1AA
  3
Metric50
350
238
  0
DICTIONARY
  5
86
102
{ACAD_REACTORS
330
C
102
}
330
C
100
AcDbDictionary
281
     1
  3
Legend
350
20D
  3
Standard
350
87
  0
DICTIONARY
  5
99
102
{ACAD_REACTORS
330
C
102
}
330
C
100
AcDbDictionary
281
     1
  3
2dWireframe
350
9F
  3
Basic
350
9E
  3
Brighten
350
A5
  3
ColorChange
350
A9
  3
Conceptual
350
A2
  3
Dim
350
A4
  3
EdgeColorOff
350
175
  3
Facepattern
350
A8
  3
Flat
350
9A
  3
FlatWithEdges
350
9B
  3
Gouraud
350
9C
  3
GouraudWithEdges
350
9D
  3
Hidden
350
A1
  3
JitterOff
350
173
  3
Linepattern
350
A7
  3
OverhangOff
350
174
  3
Realistic
350
A3
  3
Shaded
350
182
  3
Shaded with edges
350
181
  3
Shades of Gray
350
17E
  3
Sketchy
350
17F
  3
Thicken
350
A6
  3
Wireframe
350
A0
  3
X-Ray
350
180
  0
XRECORD
  5
2BB
102
{ACAD_REACTORS
330
C
102
}
330
C
100
AcDbXrecord
280
     1
 90
        1
330
87
330
20D
  0
DICTIONARY
  5
66
102
{ACAD_REACTORS
330
C
102
}
330
C
100
AcDbDictionary
281
     1
  3
CANNOSCALE
350
F0
  3
CMLEADERSTYLE
350
EF
  3
CTABLESTYLE
350
89
  3
CVIEWDETAILSTYLE
350
1B7
  3
CVIEWSECTIONSTYLE
350
1B8
  3
DIMASSOC
350
67
  3
HIDETEXT
350
6B
  3
LAYEREVAL
350
14D
  3
LAYERNOTIFY
350
14E
  0
DICTIONARY
  5
2C2
102
{ACAD_REACTORS
330
C
102
}
330
C
100
AcDbDictionary
281
     1
  3
AcDsRecords
350
2C4
  3
AcDsSchemas
350
2C3
1001
ACAD
1070
     2
  0
XRECORD
  5
266
102
{ACAD_REACTORS
330
C
102
}
330
C
100
AcDbXrecord
280
     1
 90
        2
  0
DICTIONARY
  5
21B
102
{ACAD_REACTORS
330
C
102
}
330
C
100
AcDbDictionary
281
     1
  3
_CurrQry
350
2B5
  0
DICTIONARY
  5
2B6
102
{ACAD_REACTORS
330
C
102
}
330
C
100
AcDbDictionary
281
     1
  3
ASEBlockHierarchyIndexRecord
350
2B7
1001
DCO15
1040
2056681796.0
  0
DICTIONARY
  5
204
102
{ACAD_REACTORS
330
C
102
}
330
C
100
AcDbDictionary
281
     1
  3
AcMapDMStylizedEntities
350
215
  3
AcMapResourceManager
350
209
  3
MAP_DISPLAY_CUSTOMOBJ_REG_TABLE
350
208
  3
MAP_DISPLAY_MANAGEMENT_DICTIONARY
350
205
  3
MAP_DISPLAY_STYLELIBRARY_DICTIONARY
350
206
  3
MAP_RESOURCE_VERSION_MANAGEMENT_DICTIONARY
350
216
1001
MapGWS
1000
C:\ProgramData\Autodesk\Autodesk AutoCAD Map 3D 2019\R23.0\MapCache\L573_BA_Unterdoerfl_StrassenverlaufGWS.xml
  0
DICTIONARY
  5
18F
102
{ACAD_REACTORS
330
18E
102
}
330
18E
100
AcDbDictionary
281
     1
  0
SORTENTSTABLE
  5
214
102
{ACAD_REACTORS
330
15D
102
}
330
15D
100
AcDbSortentsTable
330
1F
  0
ACDBDETAILVIEWSTYLE
  5
1AC
102
{ACAD_XDICTIONARY
360
2C7
102
}
102
{ACAD_REACTORS
330
1AB
102
}
330
1AB
100
AcDbModelDocViewStyle
 70
     0
  3
Imperial24
290
     0
100
AcDbDetailViewStyle
 70
     0
 71
     0
 90
        3
 71
     1
340
11
 62
   256
 40
0.24
340
0
 62
   256
 40
0.24
300

 40
0.36
280
     3
 71
     2
340
16
 90
       25
 62
   256
 71
     3
340
11
 62
   256
 40
0.24
 90
        1
 40
0.75
 90
        1
300
%<\AcVar ViewType \f "%tc1">% %<\AcVar ViewDetailId>%\PSCALE %<\AcVar ViewScale \f "%sn">%
 71
     4
340
16
 90
       25
 62
   256
340
16
 90
       25
 62
   256
280
     0
  0
ACDBDETAILVIEWSTYLE
  5
239
102
{ACAD_XDICTIONARY
360
2CB
102
}
102
{ACAD_REACTORS
330
1AB
102
}
330
1AB
100
AcDbModelDocViewStyle
 70
     0
  3
Metric50
290
     0
100
AcDbDetailViewStyle
 70
     0
 71
     0
 90
        3
 71
     1
340
11
 62
   256
 40
5.0
340
0
 62
   256
 40
5.0
300

 40
0.0
280
     1
 71
     2
340
16
 90
       25
 62
   256
 71
     3
340
11
 62
   256
 40
5.0
 90
        0
 40
15.0
 90
        1
300
%<\AcVar ViewDetailId>% (%<\AcVar ViewScale \f "%sn">%)
 71
     4
340
16
 90
       25
 62
   256
340
16
 90
       25
 62
   256
280
     0
  0
LAYOUT
  5
59
102
{ACAD_REACTORS
330
1A
102
}
330
1A
100
AcDbPlotSettings
  1

  2
None
  4

  6

 40
0.0
 41
0.0
 42
0.0
 43
0.0
 44
0.0
 45
0.0
 46
0.0
 47
0.0
 48
0.0
 49
0.0
140
0.0
141
0.0
142
1.0
143
1.0
 70
   688
 72
     0
 73
     0
 74
     5
  7

 75
    16
147
1.0
 76
     0
 77
     2
 78
   300
148
0.0
149
0.0
100
AcDbLayout
  1
Layout1
 70
     1
 71
     1
 10
0.0
 20
0.0
 11
12.0
 21
9.0
 12
0.0
 22
0.0
 32
0.0
 14
0.0
 24
0.0
 34
0.0
 15
0.0
 25
0.0
 35
0.0
146
0.0
 13
0.0
 23
0.0
 33
0.0
 16
1.0
 26
0.0
 36
0.0
 17
0.0
 27
1.0
 37
0.0
 76
     0
330
58
  0
LAYOUT
  5
5E
102
{ACAD_REACTORS
330
1A
102
}
330
1A
100
AcDbPlotSettings
  1

  2
None
  4

  6

 40
0.0
 41
0.0
 42
0.0
 43
0.0
 44
0.0
 45
0.0
 46
0.0
 47
0.0
 48
0.0
 49
0.0
140
0.0
141
0.0
142
1.0
143
1.0
 70
   688
 72
     0
 73
     0
 74
     5
  7

 75
    16
147
1.0
 76
     0
 77
     2
 78
   300
148
0.0
149
0.0
100
AcDbLayout
  1
Layout2
 70
     1
 71
     2
 10
0.0
 20
0.0
 11
12.0
 21
9.0
 12
0.0
 22
0.0
 32
0.0
 14
0.0
 24
0.0
 34
0.0
 15
0.0
 25
0.0
 35
0.0
146
0.0
 13
0.0
 23
0.0
 33
0.0
 16
1.0
 26
0.0
 36
0.0
 17
0.0
 27
1.0
 37
0.0
 76
     0
330
5D
  0
LAYOUT
  5
22
102
{ACAD_XDICTIONARY
360
194
102
}
102
{ACAD_REACTORS
330
1A
102
}
330
1A
100
AcDbPlotSettings
  1

  2
none_device
  4
ANSI_A_(8.50_x_11.00_Inches)
  6

 40
6.349999904632568
 41
19.04999923706055
 42
6.350006103515625
 43
19.04998779296875
 44
215.8999938964844
 45
279.3999938964844
 46
0.0
 47
0.0
 48
0.0
 49
0.0
140
0.0
141
0.0
142
1.0
143
2.584895464708373
 70
 11952
 72
     0
 73
     1
 74
     0
  7

 75
     0
147
0.3868628397755418
 76
     0
 77
     2
 78
   300
148
0.0
149
0.0
100
AcDbLayout
  1
Model
 70
     1
 71
     0
 10
0.0
 20
0.0
 11
12.0
 21
9.0
 12
0.0
 22
0.0
 32
0.0
 14
0.0
 24
0.0
 34
0.0
 15
0.0
 25
0.0
 35
0.0
146
0.0
 13
0.0
 23
0.0
 33
0.0
 16
1.0
 26
0.0
 36
0.0
 17
0.0
 27
1.0
 37
0.0
 76
     0
330
1F
331
94
  0
MATERIAL
  5
97
102
{ACAD_XDICTIONARY
360
188
102
}
102
{ACAD_REACTORS
330
72
102
}
330
72
100
AcDbMaterial
  1
ByBlock
 94
       63
  0
MATERIAL
  5
96
102
{ACAD_XDICTIONARY
360
186
102
}
102
{ACAD_REACTORS
330
72
102
}
330
72
100
AcDbMaterial
  1
ByLayer
 94
       63
  0
MATERIAL
  5
98
102
{ACAD_XDICTIONARY
360
110
102
}
102
{ACAD_REACTORS
330
72
102
}
330
72
100
AcDbMaterial
  1
Global
 43
0.0208000000566244
 43
0.0
 43
0.0
 43
0.0
 43
0.0
 43
0.0208000000566244
 43
0.0
 43
0.0
 43
0.0
 43
0.0
 43
1.0
 43
0.0
 43
0.0
 43
0.0
 43
0.0
 43
1.0
 49
0.0208000000566244
 49
0.0
 49
0.0
 49
0.0
 49
0.0
 49
0.0208000000566244
 49
0.0
 49
0.0
 49
0.0
 49
0.0
 49
1.0
 49
0.0
 49
0.0
 49
0.0
 49
0.0
 49
1.0
142
0.0208000000566244
142
0.0
142
0.0
142
0.0
142
0.0
142
0.0208000000566244
142
0.0
142
0.0
142
0.0
142
0.0
142
1.0
142
0.0
142
0.0
142
0.0
142
0.0
142
1.0
144
0.0208000000566244
144
0.0
144
0.0
144
0.0
144
0.0
144
0.0208000000566244
144
0.0
144
0.0
144
0.0
144
0.0
144
1.0
144
0.0
144
0.0
144
0.0
144
0.0
144
1.0
 94
       63
1001
ACAD
1070
    -1
1070
     3
1070
     0
1000

1071
        0
1070
     0
  0
MLEADERSTYLE
  5
E5
102
{ACAD_REACTORS
330
D7
102
}
330
D7
100
AcDbMLeaderStyle
179
     2
170
     2
171
     1
172
     0
 90
        2
 40
0.0
 41
0.0
173
     1
 91
-1056964608
340
14
 92
       -2
290
     1
 42
0.09
291
     1
 43
0.36
  3
Standard
 44
0.18
300

342
11
174
     1
178
     1
175
     1
176
     0
 93
-1056964608
 45
0.18
292
     0
297
     0
 46
0.18
 94
-1056964608
 47
1.0
 49
1.0
140
1.0
293
     1
141
0.0
294
     1
177
     0
142
1.0
295
     0
296
     1
143
0.125
271
     0
272
     9
273
     9
298
     0
  0
MLEADERSTYLE
  5
D8
102
{ACAD_REACTORS
330
D7
102
}
330
D7
100
AcDbMLeaderStyle
179
     2
170
     2
171
     1
172
     0
 90
        2
 40
0.0
 41
0.0
173
     1
 91
-1056964608
340
14
 92
       -2
290
     1
 42
0.09
291
     1
 43
0.36
  3
Standard
 44
0.18
300

342
11
174
     1
178
     1
175
     1
176
     0
 93
-1056964608
 45
0.18
292
     0
297
     0
 46
0.18
 94
-1056964608
 47
1.0
 49
1.0
140
1.0
293
     1
141
0.0
294
     1
177
     0
142
1.0
295
     0
296
     0
143
0.125
271
     0
272
     9
273
     9
298
     0
  0
MLINESTYLE
  5
18
102
{ACAD_REACTORS
330
17
102
}
330
17
100
AcDbMlineStyle
  2
STANDARD
 70
     0
  3

 62
   256
 51
90.0
 52
90.0
 71
     2
 49
0.5
 62
   256
  6
BYLAYER
 49
-0.5
 62
   256
  6
BYLAYER
  0
ACDBPLACEHOLDER
  5
F
102
{ACAD_REACTORS
330
E
102
}
330
E
  0
SCALE
  5
B7
102
{ACAD_REACTORS
330
B6
102
}
330
B6
100
AcDbScale
 70
     0
300
1:1
140
1.0
141
1.0
290
     1
  0
SCALE
  5
124
102
{ACAD_REACTORS
330
B6
102
}
330
B6
100
AcDbScale
 70
     0
300
1:2
140
1.0
141
2.0
290
     0
  0
SCALE
  5
125
102
{ACAD_REACTORS
330
B6
102
}
330
B6
100
AcDbScale
 70
     0
300
1:4
140
1.0
141
4.0
290
     0
  0
SCALE
  5
126
102
{ACAD_REACTORS
330
B6
102
}
330
B6
100
AcDbScale
 70
     0
300
1:5
140
1.0
141
5.0
290
     0
  0
SCALE
  5
127
102
{ACAD_REACTORS
330
B6
102
}
330
B6
100
AcDbScale
 70
     0
300
1:8
140
1.0
141
8.0
290
     0
  0
SCALE
  5
128
102
{ACAD_REACTORS
330
B6
102
}
330
B6
100
AcDbScale
 70
     0
300
1:10
140
1.0
141
10.0
290
     0
  0
SCALE
  5
129
102
{ACAD_REACTORS
330
B6
102
}
330
B6
100
AcDbScale
 70
     0
300
1:16
140
1.0
141
16.0
290
     0
  0
SCALE
  5
12A
102
{ACAD_REACTORS
330
B6
102
}
330
B6
100
AcDbScale
 70
     0
300
1:20
140
1.0
141
20.0
290
     0
  0
SCALE
  5
12B
102
{ACAD_REACTORS
330
B6
102
}
330
B6
100
AcDbScale
 70
     0
300
1:30
140
1.0
141
30.0
290
     0
  0
SCALE
  5
12C
102
{ACAD_REACTORS
330
B6
102
}
330
B6
100
AcDbScale
 70
     0
300
1:40
140
1.0
141
40.0
290
     0
  0
SCALE
  5
12D
102
{ACAD_REACTORS
330
B6
102
}
330
B6
100
AcDbScale
 70
     0
300
1:50
140
1.0
141
50.0
290
     0
  0
SCALE
  5
12E
102
{ACAD_REACTORS
330
B6
102
}
330
B6
100
AcDbScale
 70
     0
300
1:100
140
1.0
141
100.0
290
     0
  0
SCALE
  5
12F
102
{ACAD_REACTORS
330
B6
102
}
330
B6
100
AcDbScale
 70
     0
300
2:1
140
2.0
141
1.0
290
     0
  0
SCALE
  5
130
102
{ACAD_REACTORS
330
B6
102
}
330
B6
100
AcDbScale
 70
     0
300
4:1
140
4.0
141
1.0
290
     0
  0
SCALE
  5
131
102
{ACAD_REACTORS
330
B6
102
}
330
B6
100
AcDbScale
 70
     0
300
8:1
140
8.0
141
1.0
290
     0
  0
SCALE
  5
132
102
{ACAD_REACTORS
330
B6
102
}
330
B6
100
AcDbScale
 70
     0
300
10:1
140
10.0
141
1.0
290
     0
  0
SCALE
  5
133
102
{ACAD_REACTORS
330
B6
102
}
330
B6
100
AcDbScale
 70
     0
300
100:1
140
100.0
141
1.0
290
     0
  0
SCALE
  5
134
102
{ACAD_REACTORS
330
B6
102
}
330
B6
100
AcDbScale
 70
     0
300
1/128" = 1'-0"
140
0.0078125
141
12.0
290
     0
  0
SCALE
  5
135
102
{ACAD_REACTORS
330
B6
102
}
330
B6
100
AcDbScale
 70
     0
300
1/64" = 1'-0"
140
0.015625
141
12.0
290
     0
  0
SCALE
  5
136
102
{ACAD_REACTORS
330
B6
102
}
330
B6
100
AcDbScale
 70
     0
300
1/32" = 1'-0"
140
0.03125
141
12.0
290
     0
  0
SCALE
  5
137
102
{ACAD_REACTORS
330
B6
102
}
330
B6
100
AcDbScale
 70
     0
300
1/16" = 1'-0"
140
0.0625
141
12.0
290
     0
  0
SCALE
  5
138
102
{ACAD_REACTORS
330
B6
102
}
330
B6
100
AcDbScale
 70
     0
300
3/32" = 1'-0"
140
0.09375
141
12.0
290
     0
  0
SCALE
  5
139
102
{ACAD_REACTORS
330
B6
102
}
330
B6
100
AcDbScale
 70
     0
300
1/8" = 1'-0"
140
0.125
141
12.0
290
     0
  0
SCALE
  5
13A
102
{ACAD_REACTORS
330
B6
102
}
330
B6
100
AcDbScale
 70
     0
300
3/16" = 1'-0"
140
0.1875
141
12.0
290
     0
  0
SCALE
  5
13B
102
{ACAD_REACTORS
330
B6
102
}
330
B6
100
AcDbScale
 70
     0
300
1/4" = 1'-0"
140
0.25
141
12.0
290
     0
  0
SCALE
  5
13C
102
{ACAD_REACTORS
330
B6
102
}
330
B6
100
AcDbScale
 70
     0
300
3/8" = 1'-0"
140
0.375
141
12.0
290
     0
  0
SCALE
  5
13D
102
{ACAD_REACTORS
330
B6
102
}
330
B6
100
AcDbScale
 70
     0
300
1/2" = 1'-0"
140
0.5
141
12.0
290
     0
  0
SCALE
  5
13E
102
{ACAD_REACTORS
330
B6
102
}
330
B6
100
AcDbScale
 70
     0
300
3/4" = 1'-0"
140
0.75
141
12.0
290
     0
  0
SCALE
  5
13F
102
{ACAD_REACTORS
330
B6
102
}
330
B6
100
AcDbScale
 70
     0
300
1" = 1'-0"
140
1.0
141
12.0
290
     0
  0
SCALE
  5
140
102
{ACAD_REACTORS
330
B6
102
}
330
B6
100
AcDbScale
 70
     0
300
1-1/2" = 1'-0"
140
1.5
141
12.0
290
     0
  0
SCALE
  5
141
102
{ACAD_REACTORS
330
B6
102
}
330
B6
100
AcDbScale
 70
     0
300
3" = 1'-0"
140
3.0
141
12.0
290
     0
  0
SCALE
  5
142
102
{ACAD_REACTORS
330
B6
102
}
330
B6
100
AcDbScale
 70
     0
300
6" = 1'-0"
140
6.0
141
12.0
290
     0
  0
SCALE
  5
143
102
{ACAD_REACTORS
330
B6
102
}
330
B6
100
AcDbScale
 70
     0
300
1'-0" = 1'-0"
140
12.0
141
12.0
290
     0
  0
ACDBSECTIONVIEWSTYLE
  5
1AA
102
{ACAD_XDICTIONARY
360
2C5
102
}
102
{ACAD_REACTORS
330
1A8
102
}
330
1A8
100
AcDbModelDocViewStyle
 70
     0
  3
Imperial24
290
     0
100
AcDbSectionViewStyle
 70
     0
 71
     0
 90
       78
 71
     1
340
11
 62
   256
 40
0.24
340
0
340
0
 62
   256
 40
0.24
300
I, O, Q, S, X, Z
 40
0.48
 90
        3
 40
0.18
 90
        1
 71
     2
340
16
 90
       25
 62
   256
340
16
 90
       50
 62
   256
 40
0.24
 40
0.0
 40
0.24
 71
     3
340
11
 62
   256
 40
0.24
 90
        1
 40
0.75
 90
        1
300
%<\AcVar ViewType \f "%tc1">% %<\AcVar ViewSectionStartId>%-%<\AcVar ViewSectionEndId>%\PSCALE %<\AcVar ViewScale \f "%sn">%
 71
     4
 62
   256
 62
   257
300
ANSI31
 40
1.0
 90
        0
290
     0
290
     0
 90
        6
 40
0.0
 40
1.570796326794896
 40
0.2617993877991494
 40
1.308996938995747
 40
-0.2617993877991494
 40
1.832595714594046
  0
ACDBSECTIONVIEWSTYLE
  5
238
102
{ACAD_XDICTIONARY
360
2C9
102
}
102
{ACAD_REACTORS
330
1A8
102
}
330
1A8
100
AcDbModelDocViewStyle
 70
     0
  3
Metric50
290
     0
100
AcDbSectionViewStyle
 70
     0
 71
     0
 90
      102
 71
     1
340
11
 62
   256
 40
5.0
340
0
340
0
 62
   256
 40
5.0
300
I, O, Q, S, X, Z
 40
10.0
 90
        0
 40
2.5
 90
        0
 71
     2
340
16
 90
       25
 62
   256
340
16
 90
       50
 62
   256
 40
5.0
 40
2.5
 40
5.0
 71
     3
340
11
 62
   256
 40
5.0
 90
        0
 40
15.0
 90
        1
300
%<\AcVar ViewSectionStartId>%-%<\AcVar ViewSectionEndId>% (%<\AcVar ViewScale \f "%sn">%)
 71
     4
 62
   256
 62
   257
300
ANSI31
 40
1.0
 90
        0
290
     0
290
     0
 90
        6
 40
0.0
 40
1.570796326794896
 40
0.2617993877991494
 40
1.308996938995747
 40
-0.2617993877991494
 40
1.832595714594046
  0
TABLESTYLE
  5
20D
102
{ACAD_XDICTIONARY
360
2B9
102
}
102
{ACAD_REACTORS
330
86
102
}
330
86
100
AcDbTableStyle
280
     0
  3

 70
     0
 71
     3
 40
0.06
 41
0.06
280
     0
281
     0
  7
Legend
140
0.18
170
     4
 62
     0
 63
     7
283
     0
 90
      512
 91
        0
  1

274
    -2
284
     0
 64
     0
275
    -2
285
     0
 65
     0
276
    -2
286
     0
 66
     0
277
    -2
287
     0
 67
     0
278
    -2
288
     0
 68
     0
279
    -2
289
     0
 69
     0
  7
Legend
140
0.25
170
     5
 62
     0
 63
     7
283
     0
 90
      512
 91
        0
  1

274
    -2
284
     0
 64
     0
275
    -2
285
     0
 65
     0
276
    -2
286
     0
 66
     0
277
    -2
287
     0
 67
     0
278
    -2
288
     0
 68
     0
279
    -2
289
     0
 69
     0
  7
Legend
140
0.18
170
     4
 62
     0
 63
     7
283
     0
 90
      512
 91
        0
  1

274
    -2
284
     0
 64
     0
275
    -2
285
     0
 65
     0
276
    -2
286
     0
 66
     0
277
    -2
287
     0
 67
     0
278
    -2
288
     0
 68
     0
279
    -2
289
     0
 69
     0
  0
TABLESTYLE
  5
87
102
{ACAD_XDICTIONARY
360
104
102
}
102
{ACAD_REACTORS
330
86
102
}
330
86
100
AcDbTableStyle
280
     0
  3
Standard
 70
     0
 71
     0
 40
0.06
 41
0.06
280
     0
281
     0
  7
Standard
140
0.18
170
     2
 62
     0
 63
     7
283
     0
 90
      512
 91
        0
  1

274
    -2
284
     1
 64
     0
275
    -2
285
     1
 65
     0
276
    -2
286
     1
 66
     0
277
    -2
287
     1
 67
     0
278
    -2
288
     1
 68
     0
279
    -2
289
     1
 69
     0
  7
Standard
140
0.25
170
     5
 62
     0
 63
     7
283
     0
 90
      512
 91
        0
  1

274
    -2
284
     1
 64
     0
275
    -2
285
     1
 65
     0
276
    -2
286
     1
 66
     0
277
    -2
287
     1
 67
     0
278
    -2
288
     1
 68
     0
279
    -2
289
     1
 69
     0
  7
Standard
140
0.18
170
     5
 62
     0
 63
     7
283
     0
 90
      512
 91
        0
  1

274
    -2
284
     1
 64
     0
275
    -2
285
     1
 65
     0
276
    -2
286
     1
 66
     0
277
    -2
287
     1
 67
     0
278
    -2
288
     1
 68
     0
279
    -2
289
     1
 69
     0
  0
VISUALSTYLE
  5
9F
102
{ACAD_REACTORS
330
99
102
}
330
99
100
AcDbVisualStyle
  2
2dWireframe
 70
     4
177
     3
291
     0
 70
    58
 90
        0
176
     1
 90
        2
176
     1
 90
        1
176
     1
 90
        0
176
     1
 40
0.6
176
     1
 40
30.0
176
     1
 62
     7
420
 16777215
176
     1
 90
        1
176
     1
 90
        4
176
     1
 62
     7
176
     1
 62
   257
176
     1
 90
        1
176
     1
 90
        1
176
     1
 40
1.0
176
     1
 90
        0
176
     1
 62
   257
176
     1
 40
1.0
176
     1
 90
        1
176
     1
 90
        6
176
     1
 90
        2
176
     1
 62
     7
176
     1
 90
        5
176
     1
 90
        0
176
     1
 90
        0
176
     1
290
     0
176
     1
 90
        1
176
     1
 40
0.0
176
     1
 90
        0
176
     1
290
     1
176
     1
290
     1
176
     1
290
     0
176
     1
290
     0
176
     1
290
     0
176
     1
290
     0
176
     1
290
     0
176
     1
290
     0
176
     1
290
     0
176
     1
 90
       50
176
     1
 40
0.0
176
     1
 40
1.0
176
     1
 90
        0
176
     1
 62
    18
420
        0
176
     1
 90
       50
176
     1
 90
        3
176
     1
 62
     5
420
      255
176
     1
290
     0
176
     1
 90
       50
176
     1
 90
       50
176
     1
 90
       50
176
     1
290
     0
176
     1
 90
       50
176
     1
 62
   256
176
     0
 40
1.0
176
     0
 90
        2
176
     1
  1
strokes_ogs.tif
176
     1
290
     0
176
     1
 40
1.0
176
     1
 40
1.0
176
     1
1001
ACAD
1000
AcDbSavedByObjectVersion
1070
     0
  0
VISUALSTYLE
  5
9E
102
{ACAD_REACTORS
330
99
102
}
330
99
100
AcDbVisualStyle
  2
Basic
 70
     7
177
     3
291
     1
 70
    58
 90
        1
176
     1
 90
        0
176
     1
 90
        1
176
     1
 90
        0
176
     1
 40
0.6
176
     1
 40
30.0
176
     1
 62
     7
420
 16777215
176
     1
 90
        0
176
     1
 90
        4
176
     1
 62
     7
176
     1
 62
   257
176
     1
 90
        1
176
     1
 90
        1
176
     1
 40
1.0
176
     1
 90
        8
176
     1
 62
     7
176
     1
 40
1.0
176
     1
 90
        1
176
     1
 90
        6
176
     1
 90
        2
176
     1
 62
     7
176
     1
 90
        5
176
     1
 90
        0
176
     1
 90
        0
176
     1
290
     0
176
     1
 90
        1
176
     1
 40
0.0
176
     1
 90
        0
176
     1
290
     0
176
     1
290
     1
176
     1
290
     1
176
     1
290
     0
176
     1
290
     0
176
     1
290
     0
176
     1
290
     0
176
     1
290
     0
176
     1
290
     0
176
     1
 90
       50
176
     1
 40
0.0
176
     1
 40
1.0
176
     1
 90
        0
176
     1
 62
    18
420
        0
176
     1
 90
       50
176
     1
 90
        3
176
     1
 62
     5
420
      255
176
     1
290
     0
176
     1
 90
       50
176
     1
 90
       50
176
     1
 90
       50
176
     1
290
     0
176
     1
 90
       50
176
     1
 62
   256
176
     0
 40
1.0
176
     0
 90
        2
176
     1
  1
strokes_ogs.tif
176
     1
290
     0
176
     1
 40
1.0
176
     1
 40
1.0
176
     1
1001
ACAD
1000
AcDbSavedByObjectVersion
1070
     0
  0
VISUALSTYLE
  5
A5
102
{ACAD_REACTORS
330
99
102
}
330
99
100
AcDbVisualStyle
  2
Brighten
 70
    12
177
     3
291
     1
 70
    58
 90
        2
176
     1
 90
        2
176
     1
 90
        1
176
     1
 90
        0
176
     1
 40
0.6
176
     1
 40
30.0
176
     1
 62
     7
420
 16777215
176
     1
 90
        1
176
     1
 90
        4
176
     1
 62
     7
176
     1
 62
   257
176
     1
 90
        1
176
     1
 90
        1
176
     1
 40
1.0
176
     1
 90
        8
176
     1
 62
     7
176
     1
 40
1.0
176
     1
 90
        1
176
     1
 90
        6
176
     1
 90
        2
176
     1
 62
     7
176
     1
 90
        5
176
     1
 90
        0
176
     1
 90
        0
176
     1
290
     0
176
     1
 90
        1
176
     1
 40
50.0
176
     1
 90
        0
176
     1
290
     0
176
     1
290
     1
176
     1
290
     1
176
     1
290
     0
176
     1
290
     0
176
     1
290
     0
176
     1
290
     0
176
     1
290
     0
176
     1
290
     0
176
     1
 90
       50
176
     1
 40
0.0
176
     1
 40
1.0
176
     1
 90
        0
176
     1
 62
    18
420
        0
176
     1
 90
       50
176
     1
 90
        3
176
     1
 62
     5
420
      255
176
     1
290
     0
176
     1
 90
       50
176
     1
 90
       50
176
     1
 90
       50
176
     1
290
     0
176
     1
 90
       50
176
     1
 62
   256
176
     0
 40
1.0
176
     0
 90
        2
176
     1
  1
strokes_ogs.tif
176
     1
290
     0
176
     1
 40
1.0
176
     1
 40
1.0
176
     1
1001
ACAD
1000
AcDbSavedByObjectVersion
1070
     0
  0
VISUALSTYLE
  5
A9
102
{ACAD_REACTORS
330
99
102
}
330
99
100
AcDbVisualStyle
  2
ColorChange
 70
    16
177
     3
291
     1
 70
    58
 90
        2
176
     1
 90
        2
176
     1
 90
        3
176
     1
 90
        0
176
     1
 40
0.6
176
     1
 40
30.0
176
     1
 62
     8
420
  8421504
176
     1
 90
        1
176
     1
 90
        4
176
     1
 62
     7
176
     1
 62
   257
176
     1
 90
        1
176
     1
 90
        1
176
     1
 40
1.0
176
     1
 90
        8
176
     1
 62
     8
420
  8421504
176
     1
 40
1.0
176
     1
 90
        1
176
     1
 90
        6
176
     1
 90
        2
176
     1
 62
     7
176
     1
 90
        5
176
     1
 90
        0
176
     1
 90
        0
176
     1
290
     0
176
     1
 90
        1
176
     1
 40
0.0
176
     1
 90
        0
176
     1
290
     0
176
     1
290
     1
176
     1
290
     1
176
     1
290
     0
176
     1
290
     0
176
     1
290
     0
176
     1
290
     0
176
     1
290
     0
176
     1
290
     0
176
     1
 90
       50
176
     1
 40
0.0
176
     1
 40
1.0
176
     1
 90
        0
176
     1
 62
    18
420
        0
176
     1
 90
       50
176
     1
 90
        3
176
     1
 62
     5
420
      255
176
     1
290
     0
176
     1
 90
       50
176
     1
 90
       50
176
     1
 90
       50
176
     1
290
     0
176
     1
 90
       50
176
     1
 62
   256
176
     0
 40
1.0
176
     0
 90
        2
176
     1
  1
strokes_ogs.tif
176
     1
290
     0
176
     1
 40
1.0
176
     1
 40
1.0
176
     1
1001
ACAD
1000
AcDbSavedByObjectVersion
1070
     0
  0
VISUALSTYLE
  5
A2
102
{ACAD_REACTORS
330
99
102
}
330
99
100
AcDbVisualStyle
  2
Conceptual
 70
     9
177
     3
291
     0
 70
    58
 90
        3
176
     1
 90
        2
176
     1
 90
        1
176
     1
 90
        0
176
     1
 40
0.6
176
     1
 40
30.0
176
     1
 62
     7
420
 16777215
176
     1
 90
        2
176
     1
 90
        2
176
     1
 62
     7
176
     1
 62
   257
176
     1
 90
        1
176
     1
 90
        1
176
     1
 40
40.0
176
     1
 90
        8
176
     1
 62
     7
176
     1
 40
1.0
176
     1
 90
        1
176
     1
 90
        6
176
     1
 90
        2
176
     1
 62
     7
176
     1
 90
        3
176
     1
 90
        0
176
     1
 90
        0
176
     1
290
     0
176
     1
 90
        1
176
     1
 40
0.0
176
     1
 90
        0
176
     1
290
     0
176
     1
290
     1
176
     1
290
     1
176
     1
290
     0
176
     1
290
     0
176
     1
290
     0
176
     1
290
     0
176
     1
290
     0
176
     1
290
     0
176
     1
 90
       50
176
     1
 40
0.0
176
     1
 40
1.0
176
     1
 90
        0
176
     1
 62
    18
420
        0
176
     1
 90
       50
176
     1
 90
        3
176
     1
 62
     5
420
      255
176
     1
290
     0
176
     1
 90
       50
176
     1
 90
       50
176
     1
 90
       50
176
     1
290
     0
176
     1
 90
       50
176
     1
 62
   256
176
     0
 40
1.0
176
     0
 90
        2
176
     1
  1
strokes_ogs.tif
176
     1
290
     0
176
     1
 40
1.0
176
     1
 40
1.0
176
     1
1001
ACAD
1000
AcDbSavedByObjectVersion
1070
     0
  0
VISUALSTYLE
  5
A4
102
{ACAD_REACTORS
330
99
102
}
330
99
100
AcDbVisualStyle
  2
Dim
 70
    11
177
     3
291
     1
 70
    58
 90
        2
176
     1
 90
        2
176
     1
 90
        1
176
     1
 90
        0
176
     1
 40
0.6
176
     1
 40
30.0
176
     1
 62
     7
420
 16777215
176
     1
 90
        1
176
     1
 90
        4
176
     1
 62
     7
176
     1
 62
   257
176
     1
 90
        1
176
     1
 90
        1
176
     1
 40
1.0
176
     1
 90
        8
176
     1
 62
     7
176
     1
 40
1.0
176
     1
 90
        1
176
     1
 90
        6
176
     1
 90
        2
176
     1
 62
     7
176
     1
 90
        5
176
     1
 90
        0
176
     1
 90
        0
176
     1
290
     0
176
     1
 90
        1
176
     1
 40
-50.0
176
     1
 90
        0
176
     1
290
     0
176
     1
290
     1
176
     1
290
     1
176
     1
290
     0
176
     1
290
     0
176
     1
290
     0
176
     1
290
     0
176
     1
290
     0
176
     1
290
     0
176
     1
 90
       50
176
     1
 40
0.0
176
     1
 40
1.0
176
     1
 90
        0
176
     1
 62
    18
420
        0
176
     1
 90
       50
176
     1
 90
        3
176
     1
 62
     5
420
      255
176
     1
290
     0
176
     1
 90
       50
176
     1
 90
       50
176
     1
 90
       50
176
     1
290
     0
176
     1
 90
       50
176
     1
 62
   256
176
     0
 40
1.0
176
     0
 90
        2
176
     1
  1
strokes_ogs.tif
176
     1
290
     0
176
     1
 40
1.0
176
     1
 40
1.0
176
     1
1001
ACAD
1000
AcDbSavedByObjectVersion
1070
     0
  0
VISUALSTYLE
  5
175
102
{ACAD_REACTORS
330
99
102
}
330
99
100
AcDbVisualStyle
  2
EdgeColorOff
 70
    22
177
     3
291
     1
 70
    58
 90
        2
176
     0
 90
        2
176
     0
 90
        0
176
     0
 90
        0
176
     0
 40
0.6
176
     0
 40
30.0
176
     0
 62
     7
420
 16777215
176
     0
 90
        1
176
     0
 90
        4
176
     0
 62
     7
176
     0
 62
   257
176
     0
 90
        1
176
     0
 90
        1
176
     0
 40
1.0
176
     0
 90
        8
176
     2
 62
     7
176
     0
 40
1.0
176
     0
 90
        1
176
     0
 90
        6
176
     0
 90
        2
176
     0
 62
     7
176
     0
 90
        5
176
     0
 90
        0
176
     0
 90
        0
176
     0
290
     0
176
     0
 90
        1
176
     0
 40
0.0
176
     0
 90
        0
176
     0
290
     0
176
     1
290
     1
176
     1
290
     1
176
     1
290
     0
176
     1
290
     0
176
     1
290
     0
176
     1
290
     0
176
     1
290
     0
176
     1
290
     0
176
     1
 90
       50
176
     1
 40
0.0
176
     1
 40
1.0
176
     1
 90
        0
176
     1
 62
    18
420
        0
176
     1
 90
       50
176
     1
 90
        3
176
     1
 62
     5
420
      255
176
     1
290
     0
176
     1
 90
       50
176
     1
 90
       50
176
     1
 90
       50
176
     1
290
     0
176
     1
 90
       50
176
     1
 62
   256
176
     0
 40
1.0
176
     0
 90
        2
176
     1
  1
strokes_ogs.tif
176
     1
290
     0
176
     1
 40
1.0
176
     1
 40
1.0
176
     1
1001
ACAD
1000
AcDbSavedByObjectVersion
1070
     0
  0
VISUALSTYLE
  5
A8
102
{ACAD_REACTORS
330
99
102
}
330
99
100
AcDbVisualStyle
  2
Facepattern
 70
    15
177
     3
291
     1
 70
    58
 90
        2
176
     1
 90
        2
176
     1
 90
        1
176
     1
 90
        0
176
     1
 40
0.6
176
     1
 40
30.0
176
     1
 62
     7
420
 16777215
176
     1
 90
        1
176
     1
 90
        4
176
     1
 62
     7
176
     1
 62
   257
176
     1
 90
        1
176
     1
 90
        1
176
     1
 40
1.0
176
     1
 90
        8
176
     1
 62
     7
176
     1
 40
1.0
176
     1
 90
        1
176
     1
 90
        6
176
     1
 90
        2
176
     1
 62
     7
176
     1
 90
        5
176
     1
 90
        0
176
     1
 90
        0
176
     1
290
     0
176
     1
 90
        1
176
     1
 40
0.0
176
     1
 90
        0
176
     1
290
     0
176
     1
290
     1
176
     1
290
     1
176
     1
290
     0
176
     1
290
     0
176
     1
290
     0
176
     1
290
     0
176
     1
290
     0
176
     1
290
     0
176
     1
 90
       50
176
     1
 40
0.0
176
     1
 40
1.0
176
     1
 90
        0
176
     1
 62
    18
420
        0
176
     1
 90
       50
176
     1
 90
        3
176
     1
 62
     5
420
      255
176
     1
290
     0
176
     1
 90
       50
176
     1
 90
       50
176
     1
 90
       50
176
     1
290
     0
176
     1
 90
       50
176
     1
 62
   256
176
     0
 40
1.0
176
     0
 90
        2
176
     1
  1
strokes_ogs.tif
176
     1
290
     0
176
     1
 40
1.0
176
     1
 40
1.0
176
     1
1001
ACAD
1000
AcDbSavedByObjectVersion
1070
     0
  0
VISUALSTYLE
  5
9A
102
{ACAD_REACTORS
330
99
102
}
330
99
100
AcDbVisualStyle
  2
Flat
 70
     0
177
     3
291
     1
 70
    58
 90
        2
176
     1
 90
        1
176
     1
 90
        1
176
     1
 90
        2
176
     1
 40
0.6
176
     1
 40
30.0
176
     1
 62
     7
420
 16777215
176
     1
 90
        0
176
     1
 90
        0
176
     1
 62
     7
176
     1
 62
   257
176
     1
 90
        1
176
     1
 90
        1
176
     1
 40
1.0
176
     1
 90
        8
176
     1
 62
     7
176
     1
 40
1.0
176
     1
 90
        1
176
     1
 90
        6
176
     1
 90
        2
176
     1
 62
     7
176
     1
 90
        5
176
     1
 90
        0
176
     1
 90
        0
176
     1
290
     0
176
     1
 90
       13
176
     1
 40
0.0
176
     1
 90
        0
176
     1
290
     0
176
     1
290
     1
176
     1
290
     1
176
     1
290
     0
176
     1
290
     0
176
     1
290
     0
176
     1
290
     0
176
     1
290
     0
176
     1
290
     0
176
     1
 90
       50
176
     1
 40
0.0
176
     1
 40
1.0
176
     1
 90
        0
176
     1
 62
    18
420
        0
176
     1
 90
       50
176
     1
 90
        3
176
     1
 62
     5
420
      255
176
     1
290
     0
176
     1
 90
       50
176
     1
 90
       50
176
     1
 90
       50
176
     1
290
     0
176
     1
 90
       50
176
     1
 62
   256
176
     0
 40
1.0
176
     0
 90
        2
176
     1
  1
strokes_ogs.tif
176
     1
290
     0
176
     1
 40
1.0
176
     1
 40
1.0
176
     1
1001
ACAD
1000
AcDbSavedByObjectVersion
1070
     0
  0
VISUALSTYLE
  5
9B
102
{ACAD_REACTORS
330
99
102
}
330
99
100
AcDbVisualStyle
  2
FlatWithEdges
 70
     1
177
     3
291
     1
 70
    58
 90
        2
176
     1
 90
        1
176
     1
 90
        1
176
     1
 90
        2
176
     1
 40
0.6
176
     1
 40
30.0
176
     1
 62
     7
420
 16777215
176
     1
 90
        1
176
     1
 90
        0
176
     1
 62
     7
176
     1
 62
   257
176
     1
 90
        1
176
     1
 90
        1
176
     1
 40
1.0
176
     1
 90
        0
176
     1
 62
   257
176
     1
 40
1.0
176
     1
 90
        1
176
     1
 90
        6
176
     1
 90
        2
176
     1
 62
     7
176
     1
 90
        5
176
     1
 90
        0
176
     1
 90
        0
176
     1
290
     0
176
     1
 90
       13
176
     1
 40
0.0
176
     1
 90
        0
176
     1
290
     0
176
     1
290
     1
176
     1
290
     1
176
     1
290
     0
176
     1
290
     0
176
     1
290
     0
176
     1
290
     0
176
     1
290
     0
176
     1
290
     0
176
     1
 90
       50
176
     1
 40
0.0
176
     1
 40
1.0
176
     1
 90
        0
176
     1
 62
    18
420
        0
176
     1
 90
       50
176
     1
 90
        3
176
     1
 62
     5
420
      255
176
     1
290
     0
176
     1
 90
       50
176
     1
 90
       50
176
     1
 90
       50
176
     1
290
     0
176
     1
 90
       50
176
     1
 62
   256
176
     0
 40
1.0
176
     0
 90
        2
176
     1
  1
strokes_ogs.tif
176
     1
290
     0
176
     1
 40
1.0
176
     1
 40
1.0
176
     1
1001
ACAD
1000
AcDbSavedByObjectVersion
1070
     0
  0
VISUALSTYLE
  5
9C
102
{ACAD_REACTORS
330
99
102
}
330
99
100
AcDbVisualStyle
  2
Gouraud
 70
     2
177
     3
291
     1
 70
    58
 90
        2
176
     1
 90
        2
176
     1
 90
        1
176
     1
 90
        2
176
     1
 40
0.6
176
     1
 40
30.0
176
     1
 62
     7
420
 16777215
176
     1
 90
        0
176
     1
 90
        0
176
     1
 62
     7
176
     1
 62
   257
176
     1
 90
        1
176
     1
 90
        1
176
     1
 40
1.0
176
     1
 90
        0
176
     1
 62
     7
176
     1
 40
1.0
176
     1
 90
        1
176
     1
 90
        6
176
     1
 90
        2
176
     1
 62
     7
176
     1
 90
        5
176
     1
 90
        0
176
     1
 90
        0
176
     1
290
     0
176
     1
 90
       13
176
     1
 40
0.0
176
     1
 90
        0
176
     1
290
     0
176
     1
290
     1
176
     1
290
     1
176
     1
290
     0
176
     1
290
     0
176
     1
290
     0
176
     1
290
     0
176
     1
290
     0
176
     1
290
     0
176
     1
 90
       50
176
     1
 40
0.0
176
     1
 40
1.0
176
     1
 90
        0
176
     1
 62
    18
420
        0
176
     1
 90
       50
176
     1
 90
        3
176
     1
 62
     5
420
      255
176
     1
290
     0
176
     1
 90
       50
176
     1
 90
       50
176
     1
 90
       50
176
     1
290
     0
176
     1
 90
       50
176
     1
 62
   256
176
     0
 40
1.0
176
     0
 90
        2
176
     1
  1
strokes_ogs.tif
176
     1
290
     0
176
     1
 40
1.0
176
     1
 40
1.0
176
     1
1001
ACAD
1000
AcDbSavedByObjectVersion
1070
     0
  0
VISUALSTYLE
  5
9D
102
{ACAD_REACTORS
330
99
102
}
330
99
100
AcDbVisualStyle
  2
GouraudWithEdges
 70
     3
177
     3
291
     1
 70
    58
 90
        2
176
     1
 90
        2
176
     1
 90
        1
176
     1
 90
        2
176
     1
 40
0.6
176
     1
 40
30.0
176
     1
 62
     7
420
 16777215
176
     1
 90
        1
176
     1
 90
        0
176
     1
 62
     7
176
     1
 62
   257
176
     1
 90
        1
176
     1
 90
        1
176
     1
 40
1.0
176
     1
 90
        0
176
     1
 62
   257
176
     1
 40
1.0
176
     1
 90
        1
176
     1
 90
        6
176
     1
 90
        2
176
     1
 62
     7
176
     1
 90
        5
176
     1
 90
        0
176
     1
 90
        0
176
     1
290
     0
176
     1
 90
       13
176
     1
 40
0.0
176
     1
 90
        0
176
     1
290
     0
176
     1
290
     1
176
     1
290
     1
176
     1
290
     0
176
     1
290
     0
176
     1
290
     0
176
     1
290
     0
176
     1
290
     0
176
     1
290
     0
176
     1
 90
       50
176
     1
 40
0.0
176
     1
 40
1.0
176
     1
 90
        0
176
     1
 62
    18
420
        0
176
     1
 90
       50
176
     1
 90
        3
176
     1
 62
     5
420
      255
176
     1
290
     0
176
     1
 90
       50
176
     1
 90
       50
176
     1
 90
       50
176
     1
290
     0
176
     1
 90
       50
176
     1
 62
   256
176
     0
 40
1.0
176
     0
 90
        2
176
     1
  1
strokes_ogs.tif
176
     1
290
     0
176
     1
 40
1.0
176
     1
 40
1.0
176
     1
1001
ACAD
1000
AcDbSavedByObjectVersion
1070
     0
  0
VISUALSTYLE
  5
A1
102
{ACAD_REACTORS
330
99
102
}
330
99
100
AcDbVisualStyle
  2
Hidden
 70
     6
177
     3
291
     0
 70
    58
 90
        1
176
     1
 90
        2
176
     1
 90
        2
176
     1
 90
        0
176
     1
 40
0.6
176
     1
 40
30.0
176
     1
 62
     7
420
 16777215
176
     1
 90
        2
176
     1
 90
        2
176
     1
 62
     7
176
     1
 62
   257
176
     1
 90
        2
176
     1
 90
        1
176
     1
 40
40.0
176
     1
 90
        0
176
     1
 62
   257
176
     1
 40
1.0
176
     1
 90
        1
176
     1
 90
        6
176
     1
 90
        2
176
     1
 62
     7
176
     1
 90
        3
176
     1
 90
        0
176
     1
 90
        0
176
     1
290
     0
176
     1
 90
        1
176
     1
 40
0.0
176
     1
 90
        0
176
     1
290
     0
176
     1
290
     1
176
     1
290
     1
176
     1
290
     0
176
     1
290
     0
176
     1
290
     0
176
     1
290
     0
176
     1
290
     0
176
     1
290
     0
176
     1
 90
       50
176
     1
 40
0.0
176
     1
 40
1.0
176
     1
 90
        0
176
     1
 62
    18
420
        0
176
     1
 90
       50
176
     1
 90
        3
176
     1
 62
     5
420
      255
176
     1
290
     0
176
     1
 90
       50
176
     1
 90
       50
176
     1
 90
       50
176
     1
290
     0
176
     1
 90
       50
176
     1
 62
   256
176
     0
 40
1.0
176
     0
 90
        2
176
     1
  1
strokes_ogs.tif
176
     1
290
     0
176
     1
 40
1.0
176
     1
 40
1.0
176
     1
1001
ACAD
1000
AcDbSavedByObjectVersion
1070
     0
  0
VISUALSTYLE
  5
173
102
{ACAD_REACTORS
330
99
102
}
330
99
100
AcDbVisualStyle
  2
JitterOff
 70
    20
177
     3
291
     1
 70
    58
 90
        2
176
     0
 90
        2
176
     0
 90
        0
176
     0
 90
        0
176
     0
 40
0.6
176
     0
 40
30.0
176
     0
 62
     7
420
 16777215
176
     0
 90
        1
176
     0
 90
        4
176
     0
 62
     7
176
     0
 62
   257
176
     0
 90
        1
176
     0
 90
        1
176
     0
 40
1.0
176
     0
 90
       10
176
     2
 62
     7
176
     0
 40
1.0
176
     0
 90
        1
176
     0
 90
        6
176
     0
 90
        2
176
     0
 62
     7
176
     0
 90
        5
176
     0
 90
        0
176
     0
 90
        0
176
     0
290
     0
176
     0
 90
        1
176
     0
 40
0.0
176
     0
 90
        0
176
     0
290
     0
176
     1
290
     1
176
     1
290
     1
176
     1
290
     0
176
     1
290
     0
176
     1
290
     0
176
     1
290
     0
176
     1
290
     0
176
     1
290
     0
176
     1
 90
       50
176
     1
 40
0.0
176
     1
 40
1.0
176
     1
 90
        0
176
     1
 62
    18
420
        0
176
     1
 90
       50
176
     1
 90
        3
176
     1
 62
     5
420
      255
176
     1
290
     0
176
     1
 90
       50
176
     1
 90
       50
176
     1
 90
       50
176
     1
290
     0
176
     1
 90
       50
176
     1
 62
   256
176
     0
 40
1.0
176
     0
 90
        2
176
     1
  1
strokes_ogs.tif
176
     1
290
     0
176
     1
 40
1.0
176
     1
 40
1.0
176
     1
1001
ACAD
1000
AcDbSavedByObjectVersion
1070
     0
  0
VISUALSTYLE
  5
A7
102
{ACAD_REACTORS
330
99
102
}
330
99
100
AcDbVisualStyle
  2
Linepattern
 70
    14
177
     3
291
     1
 70
    58
 90
        2
176
     1
 90
        2
176
     1
 90
        1
176
     1
 90
        0
176
     1
 40
0.6
176
     1
 40
30.0
176
     1
 62
     7
420
 16777215
176
     1
 90
        1
176
     1
 90
        4
176
     1
 62
     7
176
     1
 62
   257
176
     1
 90
        7
176
     1
 90
        7
176
     1
 40
1.0
176
     1
 90
        8
176
     1
 62
     7
176
     1
 40
1.0
176
     1
 90
        1
176
     1
 90
        6
176
     1
 90
        2
176
     1
 62
     7
176
     1
 90
        5
176
     1
 90
        0
176
     1
 90
        0
176
     1
290
     0
176
     1
 90
        1
176
     1
 40
0.0
176
     1
 90
        0
176
     1
290
     0
176
     1
290
     1
176
     1
290
     1
176
     1
290
     0
176
     1
290
     0
176
     1
290
     0
176
     1
290
     0
176
     1
290
     0
176
     1
290
     0
176
     1
 90
       50
176
     1
 40
0.0
176
     1
 40
1.0
176
     1
 90
        0
176
     1
 62
    18
420
        0
176
     1
 90
       50
176
     1
 90
        3
176
     1
 62
     5
420
      255
176
     1
290
     0
176
     1
 90
       50
176
     1
 90
       50
176
     1
 90
       50
176
     1
290
     0
176
     1
 90
       50
176
     1
 62
   256
176
     0
 40
1.0
176
     0
 90
        2
176
     1
  1
strokes_ogs.tif
176
     1
290
     0
176
     1
 40
1.0
176
     1
 40
1.0
176
     1
1001
ACAD
1000
AcDbSavedByObjectVersion
1070
     0
  0
VISUALSTYLE
  5
174
102
{ACAD_REACTORS
330
99
102
}
330
99
100
AcDbVisualStyle
  2
OverhangOff
 70
    21
177
     3
291
     1
 70
    58
 90
        2
176
     0
 90
        2
176
     0
 90
        0
176
     0
 90
        0
176
     0
 40
0.6
176
     0
 40
30.0
176
     0
 62
     7
420
 16777215
176
     0
 90
        1
176
     0
 90
        4
176
     0
 62
     7
176
     0
 62
   257
176
     0
 90
        1
176
     0
 90
        1
176
     0
 40
1.0
176
     0
 90
        9
176
     2
 62
     7
176
     0
 40
1.0
176
     0
 90
        1
176
     0
 90
        6
176
     0
 90
        2
176
     0
 62
     7
176
     0
 90
        5
176
     0
 90
        0
176
     0
 90
        0
176
     0
290
     0
176
     0
 90
        1
176
     0
 40
0.0
176
     0
 90
        0
176
     0
290
     0
176
     1
290
     1
176
     1
290
     1
176
     1
290
     0
176
     1
290
     0
176
     1
290
     0
176
     1
290
     0
176
     1
290
     0
176
     1
290
     0
176
     1
 90
       50
176
     1
 40
0.0
176
     1
 40
1.0
176
     1
 90
        0
176
     1
 62
    18
420
        0
176
     1
 90
       50
176
     1
 90
        3
176
     1
 62
     5
420
      255
176
     1
290
     0
176
     1
 90
       50
176
     1
 90
       50
176
     1
 90
       50
176
     1
290
     0
176
     1
 90
       50
176
     1
 62
   256
176
     0
 40
1.0
176
     0
 90
        2
176
     1
  1
strokes_ogs.tif
176
     1
290
     0
176
     1
 40
1.0
176
     1
 40
1.0
176
     1
1001
ACAD
1000
AcDbSavedByObjectVersion
1070
     0
  0
VISUALSTYLE
  5
A3
102
{ACAD_REACTORS
330
99
102
}
330
99
100
AcDbVisualStyle
  2
Realistic
 70
     8
177
     3
291
     0
 70
    58
 90
        2
176
     1
 90
        3
176
     1
 90
        0
176
     1
 90
        2
176
     1
 40
0.6
176
     1
 40
30.0
176
     1
 62
     7
420
 16777215
176
     1
 90
        0
176
     1
 90
        0
176
     1
 62
     7
176
     1
 62
   257
176
     1
 90
        1
176
     1
 90
        1
176
     1
 40
1.0
176
     1
 90
        8
176
     1
 62
   257
176
     1
 40
1.0
176
     1
 90
        1
176
     1
 90
        6
176
     1
 90
        2
176
     1
 62
     7
176
     1
 90
        3
176
     1
 90
        0
176
     1
 90
        0
176
     1
290
     0
176
     1
 90
       13
176
     1
 40
0.0
176
     1
 90
        0
176
     1
290
     0
176
     1
290
     1
176
     1
290
     1
176
     1
290
     0
176
     1
290
     0
176
     1
290
     0
176
     1
290
     0
176
     1
290
     0
176
     1
290
     0
176
     1
 90
       50
176
     1
 40
0.0
176
     1
 40
1.0
176
     1
 90
        0
176
     1
 62
    18
420
        0
176
     1
 90
       50
176
     1
 90
        3
176
     1
 62
     5
420
      255
176
     1
290
     0
176
     1
 90
       50
176
     1
 90
       50
176
     1
 90
       50
176
     1
290
     0
176
     1
 90
       50
176
     1
 62
   256
176
     0
 40
1.0
176
     0
 90
        2
176
     1
  1
strokes_ogs.tif
176
     1
290
     0
176
     1
 40
1.0
176
     1
 40
1.0
176
     1
1001
ACAD
1000
AcDbSavedByObjectVersion
1070
     0
  0
VISUALSTYLE
  5
182
102
{ACAD_REACTORS
330
99
102
}
330
99
100
AcDbVisualStyle
  2
Shaded
 70
    27
177
     3
291
     0
 70
    58
 90
        2
176
     1
 90
        2
176
     1
 90
        1
176
     1
 90
        2
176
     1
 40
0.6
176
     1
 40
30.0
176
     1
 62
     7
420
 16777215
176
     1
 90
        0
176
     1
 90
        4
176
     1
 62
     7
176
     1
 62
   257
176
     1
 90
        1
176
     1
 90
        1
176
     1
 40
1.0
176
     1
 90
        8
176
     1
 62
   257
176
     1
 40
1.0
176
     1
 90
        1
176
     1
 90
        6
176
     1
 90
        2
176
     1
 62
     8
420
  7895160
176
     1
 90
        3
176
     1
 90
        0
176
     1
 90
        0
176
     1
290
     0
176
     1
 90
        5
176
     1
 40
0.0
176
     1
 90
        0
176
     1
290
     0
176
     1
290
     1
176
     1
290
     1
176
     1
290
     0
176
     1
290
     0
176
     1
290
     0
176
     1
290
     0
176
     1
290
     0
176
     1
290
     0
176
     1
 90
       50
176
     1
 40
0.0
176
     1
 40
1.0
176
     1
 90
        0
176
     1
 62
    18
420
        0
176
     1
 90
       50
176
     1
 90
        3
176
     1
 62
     5
420
      255
176
     1
290
     0
176
     1
 90
       50
176
     1
 90
       50
176
     1
 90
       50
176
     1
290
     0
176
     1
 90
       50
176
     1
 62
   256
176
     0
 40
1.0
176
     0
 90
        2
176
     1
  1
strokes_ogs.tif
176
     1
290
     0
176
     1
 40
1.0
176
     1
 40
1.0
176
     1
1001
ACAD
1000
AcDbSavedByObjectVersion
1070
     0
  0
VISUALSTYLE
  5
181
102
{ACAD_REACTORS
330
99
102
}
330
99
100
AcDbVisualStyle
  2
Shaded with edges
 70
    26
177
     3
291
     0
 70
    58
 90
        2
176
     1
 90
        2
176
     1
 90
        1
176
     1
 90
        2
176
     1
 40
0.6
176
     1
 40
30.0
176
     1
 62
     7
420
 16777215
176
     1
 90
        1
176
     1
 90
        2
176
     1
 62
     7
176
     1
 62
   257
176
     1
 90
        2
176
     1
 90
        1
176
     1
 40
1.0
176
     1
 90
        8
176
     1
 62
   257
176
     1
 40
1.0
176
     1
 90
        1
176
     1
 90
        6
176
     1
 90
        2
176
     1
 62
     7
176
     1
 90
        3
176
     1
 90
        0
176
     1
 90
        0
176
     1
290
     0
176
     1
 90
        5
176
     1
 40
0.0
176
     1
 90
        0
176
     1
290
     0
176
     1
290
     1
176
     1
290
     1
176
     1
290
     0
176
     1
290
     0
176
     1
290
     0
176
     1
290
     0
176
     1
290
     0
176
     1
290
     0
176
     1
 90
       50
176
     1
 40
0.0
176
     1
 40
1.0
176
     1
 90
        0
176
     1
 62
    18
420
        0
176
     1
 90
       50
176
     1
 90
        3
176
     1
 62
     5
420
      255
176
     1
290
     0
176
     1
 90
       50
176
     1
 90
       50
176
     1
 90
       50
176
     1
290
     0
176
     1
 90
       50
176
     1
 62
   256
176
     0
 40
1.0
176
     0
 90
        2
176
     1
  1
strokes_ogs.tif
176
     1
290
     0
176
     1
 40
1.0
176
     1
 40
1.0
176
     1
1001
ACAD
1000
AcDbSavedByObjectVersion
1070
     0
  0
VISUALSTYLE
  5
17E
102
{ACAD_REACTORS
330
99
102
}
330
99
100
AcDbVisualStyle
  2
Shades of Gray
 70
    23
177
     3
291
     0
 70
    58
 90
        2
176
     1
 90
        2
176
     1
 90
        3
176
     1
 90
        0
176
     1
 40
0.6
176
     1
 40
30.0
176
     1
 62
     7
420
 16777215
176
     1
 90
        2
176
     1
 90
        2
176
     1
 62
     7
176
     1
 62
     7
176
     1
 90
        1
176
     1
 90
        1
176
     1
 40
40.0
176
     1
 90
        8
176
     1
 62
     7
176
     1
 40
1.0
176
     1
 90
        1
176
     1
 90
        6
176
     1
 90
        2
176
     1
 62
     7
176
     1
 90
        3
176
     1
 90
        0
176
     1
 90
        0
176
     1
290
     0
176
     1
 90
        1
176
     1
 40
0.0
176
     1
 90
        0
176
     1
290
     0
176
     1
290
     1
176
     1
290
     1
176
     1
290
     0
176
     1
290
     0
176
     1
290
     0
176
     1
290
     0
176
     1
290
     0
176
     1
290
     0
176
     1
 90
       50
176
     1
 40
0.0
176
     1
 40
1.0
176
     1
 90
        0
176
     1
 62
    18
420
        0
176
     1
 90
       50
176
     1
 90
        3
176
     1
 62
     5
420
      255
176
     1
290
     0
176
     1
 90
       50
176
     1
 90
       50
176
     1
 90
       50
176
     1
290
     0
176
     1
 90
       50
176
     1
 62
   256
176
     0
 40
1.0
176
     0
 90
        2
176
     1
  1
strokes_ogs.tif
176
     1
290
     0
176
     1
 40
1.0
176
     1
 40
1.0
176
     1
1001
ACAD
1000
AcDbSavedByObjectVersion
1070
     0
  0
VISUALSTYLE
  5
17F
102
{ACAD_REACTORS
330
99
102
}
330
99
100
AcDbVisualStyle
  2
Sketchy
 70
    24
177
     3
291
     0
 70
    58
 90
        1
176
     1
 90
        2
176
     1
 90
        2
176
     1
 90
        0
176
     1
 40
0.6
176
     1
 40
30.0
176
     1
 62
     7
420
 16777215
176
     1
 90
        2
176
     1
 90
        2
176
     1
 62
     7
176
     1
 62
     7
176
     1
 90
        1
176
     1
 90
        1
176
     1
 40
40.0
176
     1
 90
       11
176
     1
 62
     7
176
     1
 40
1.0
176
     1
 90
        1
176
     1
 90
        6
176
     1
 90
        2
176
     1
 62
     7
176
     1
 90
        6
176
     1
 90
        0
176
     1
 90
        0
176
     1
290
     0
176
     1
 90
        1
176
     1
 40
0.0
176
     1
 90
        0
176
     1
290
     0
176
     1
290
     1
176
     1
290
     1
176
     1
290
     0
176
     1
290
     0
176
     1
290
     0
176
     1
290
     0
176
     1
290
     0
176
     1
290
     0
176
     1
 90
       50
176
     1
 40
0.0
176
     1
 40
1.0
176
     1
 90
        0
176
     1
 62
    18
420
        0
176
     1
 90
       50
176
     1
 90
        3
176
     1
 62
     5
420
      255
176
     1
290
     0
176
     1
 90
       50
176
     1
 90
       50
176
     1
 90
       50
176
     1
290
     0
176
     1
 90
       50
176
     1
 62
   256
176
     0
 40
1.0
176
     0
 90
        2
176
     1
  1
strokes_ogs.tif
176
     1
290
     0
176
     1
 40
1.0
176
     1
 40
1.0
176
     1
1001
ACAD
1000
AcDbSavedByObjectVersion
1070
     0
  0
VISUALSTYLE
  5
A6
102
{ACAD_REACTORS
330
99
102
}
330
99
100
AcDbVisualStyle
  2
Thicken
 70
    13
177
     3
291
     1
 70
    58
 90
        2
176
     1
 90
        2
176
     1
 90
        1
176
     1
 90
        0
176
     1
 40
0.6
176
     1
 40
30.0
176
     1
 62
     7
420
 16777215
176
     1
 90
        1
176
     1
 90
        4
176
     1
 62
     7
176
     1
 62
   257
176
     1
 90
        1
176
     1
 90
        1
176
     1
 40
1.0
176
     1
 90
       12
176
     1
 62
     7
176
     1
 40
1.0
176
     1
 90
        1
176
     1
 90
        6
176
     1
 90
        2
176
     1
 62
     7
176
     1
 90
        5
176
     1
 90
        0
176
     1
 90
        0
176
     1
290
     0
176
     1
 90
        1
176
     1
 40
0.0
176
     1
 90
        0
176
     1
290
     0
176
     1
290
     1
176
     1
290
     1
176
     1
290
     0
176
     1
290
     0
176
     1
290
     0
176
     1
290
     0
176
     1
290
     0
176
     1
290
     0
176
     1
 90
       50
176
     1
 40
0.0
176
     1
 40
1.0
176
     1
 90
        0
176
     1
 62
    18
420
        0
176
     1
 90
       50
176
     1
 90
        3
176
     1
 62
     5
420
      255
176
     1
290
     0
176
     1
 90
       50
176
     1
 90
       50
176
     1
 90
       50
176
     1
290
     0
176
     1
 90
       50
176
     1
 62
   256
176
     0
 40
1.0
176
     0
 90
        2
176
     1
  1
strokes_ogs.tif
176
     1
290
     0
176
     1
 40
1.0
176
     1
 40
1.0
176
     1
1001
ACAD
1000
AcDbSavedByObjectVersion
1070
     0
  0
VISUALSTYLE
  5
A0
102
{ACAD_REACTORS
330
99
102
}
330
99
100
AcDbVisualStyle
  2
Wireframe
 70
     5
177
     3
291
     0
 70
    58
 90
        0
176
     1
 90
        2
176
     1
 90
        0
176
     1
 90
        0
176
     1
 40
0.6
176
     1
 40
30.0
176
     1
 62
     7
420
 16777215
176
     1
 90
        1
176
     1
 90
        4
176
     1
 62
     7
176
     1
 62
   257
176
     1
 90
        1
176
     1
 90
        1
176
     1
 40
1.0
176
     1
 90
        0
176
     1
 62
   257
176
     1
 40
1.0
176
     1
 90
        1
176
     1
 90
        6
176
     1
 90
        2
176
     1
 62
     7
176
     1
 90
        3
176
     1
 90
        0
176
     1
 90
        0
176
     1
290
     0
176
     1
 90
        1
176
     1
 40
0.0
176
     1
 90
        0
176
     1
290
     0
176
     1
290
     1
176
     1
290
     1
176
     1
290
     0
176
     1
290
     0
176
     1
290
     0
176
     1
290
     0
176
     1
290
     0
176
     1
290
     0
176
     1
 90
       50
176
     1
 40
0.0
176
     1
 40
1.0
176
     1
 90
        0
176
     1
 62
    18
420
        0
176
     1
 90
       50
176
     1
 90
        3
176
     1
 62
     5
420
      255
176
     1
290
     0
176
     1
 90
       50
176
     1
 90
       50
176
     1
 90
       50
176
     1
290
     0
176
     1
 90
       50
176
     1
 62
   256
176
     0
 40
1.0
176
     0
 90
        2
176
     1
  1
strokes_ogs.tif
176
     1
290
     0
176
     1
 40
1.0
176
     1
 40
1.0
176
     1
1001
ACAD
1000
AcDbSavedByObjectVersion
1070
     0
  0
VISUALSTYLE
  5
180
102
{ACAD_REACTORS
330
99
102
}
330
99
100
AcDbVisualStyle
  2
X-Ray
 70
    25
177
     3
291
     0
 70
    58
 90
        2
176
     1
 90
        2
176
     1
 90
        1
176
     1
 90
        1
176
     1
 40
0.5
176
     1
 40
30.0
176
     1
 62
     7
420
 16777215
176
     1
 90
        1
176
     1
 90
        0
176
     1
 62
     7
176
     1
 62
   257
176
     1
 90
        1
176
     1
 90
        1
176
     1
 40
1.0
176
     1
 90
        8
176
     1
 62
     7
176
     1
 40
1.0
176
     1
 90
        1
176
     1
 90
        6
176
     1
 90
        2
176
     1
 62
     7
176
     1
 90
        3
176
     1
 90
        0
176
     1
 90
        0
176
     1
290
     0
176
     1
 90
       13
176
     1
 40
0.0
176
     1
 90
        0
176
     1
290
     0
176
     1
290
     1
176
     1
290
     1
176
     1
290
     0
176
     1
290
     0
176
     1
290
     0
176
     1
290
     0
176
     1
290
     0
176
     1
290
     0
176
     1
 90
       50
176
     1
 40
0.0
176
     1
 40
1.0
176
     1
 90
        0
176
     1
 62
    18
420
        0
176
     1
 90
       50
176
     1
 90
        3
176
     1
 62
     5
420
      255
176
     1
290
     0
176
     1
 90
       50
176
     1
 90
       50
176
     1
 90
       50
176
     1
290
     0
176
     1
 90
       50
176
     1
 62
   256
176
     0
 40
1.0
176
     0
 90
        2
176
     1
  1
strokes_ogs.tif
176
     1
290
     0
176
     1
 40
1.0
176
     1
 40
1.0
176
     1
1001
ACAD
1000
AcDbSavedByObjectVersion
1070
     0
  0
DICTIONARYVAR
  5
F0
102
{ACAD_REACTORS
330
66
102
}
330
66
100
DictionaryVariables
280
     0
  1
1:1
  0
DICTIONARYVAR
  5
EF
102
{ACAD_REACTORS
330
66
102
}
330
66
100
DictionaryVariables
280
     0
  1
STANDARD
  0
DICTIONARYVAR
  5
89
102
{ACAD_REACTORS
330
66
102
}
330
66
100
DictionaryVariables
280
     0
  1
STANDARD
  0
DICTIONARYVAR
  5
1B7
102
{ACAD_REACTORS
330
66
102
}
330
66
100
DictionaryVariables
280
     0
  1
Imperial24
  0
DICTIONARYVAR
  5
1B8
102
{ACAD_REACTORS
330
66
102
}
330
66
100
DictionaryVariables
280
     0
  1
Imperial24
  0
DICTIONARYVAR
  5
67
102
{ACAD_REACTORS
330
66
102
}
330
66
100
DictionaryVariables
280
     0
  1
2
  0
DICTIONARYVAR
  5
6B
102
{ACAD_REACTORS
330
66
102
}
330
66
100
DictionaryVariables
280
     0
  1
1
  0
DICTIONARYVAR
  5
14D
102
{ACAD_REACTORS
330
66
102
}
330
66
100
DictionaryVariables
280
     0
  1
0
  0
DICTIONARYVAR
  5
14E
102
{ACAD_REACTORS
330
66
102
}
330
66
100
DictionaryVariables
280
     0
  1
0
  0
DICTIONARY
  5
2C4
102
{ACAD_REACTORS
330
2C2
102
}
330
2C2
100
AcDbDictionary
281
     1
  0
DICTIONARY
  5
2C3
102
{ACAD_REACTORS
330
2C2
102
}
330
2C2
100
AcDbDictionary
281
     1
  3
1943829096656
350
2BD
  3
1943829096672
350
2BE
  3
1943829096688
350
2BF
  3
1943829096704
350
2C0
  3
1943829096720
350
2C1
  0
XRECORD
  5
2B5
102
{ACAD_REACTORS
330
21B
102
}
330
21B
100
AcDbXrecord
280
     1
1000
ADE02C001
1070
     1
1070
     0
1002
{
1002
}
1002
{
1002
}
1002
{
1002
}
1000

  0
XRECORD
  5
2B7
102
{ACAD_REACTORS
330
2B6
102
}
330
2B6
100
AcDbXrecord
280
     1
  0
DMSTYLIZEDENTITIESTABLE
  5
215
102
{ACAD_REACTORS
330
204
102
}
330
204
100
AcMapDMStylizedEntitiesTable
 70
     1
  0
MAPRESOURCEMANAGEROBJECT
  5
209
102
{ACAD_REACTORS
330
204
102
}
330
204
100
AcMapResourceManager
 70
     1
 90
        0
  0
DATATABLE
  5
208
102
{ACAD_REACTORS
330
204
102
}
330
204
100
AcDbDataTable
 70
     2
 90
        4
 91
       15
  1

 92
        3
  2
OriginalClassName
  3
AcMapDMDefaultStyle
  3
AcMapDMEntityStyle
  3
AcMapDMRasterStyle
  3
AcMapDMSEAnnotationStyle
  3
AcMapDMSEHatchStyle
  3
AcMapDMSETextStyle
  3
AcMapDMThematicStyle
  3
AcMapDMBaseElement
  3
AcMapDMAttachedDwgsQueryElement
  3
AcMapDMFeatureElement
  3
AcMapDMLayerElement
  3
AcMapDMCurrentDwgQueryElement
  3
AcMapDMRasterElement
  3
AcMapDMTopoElement
  3
AcMapDMTopoQueryElement
 92
        3
  2
ProxyDisplayName
  3
Default
  3
Entity
  3
Raster
  3
Annotation
  3
Hatch
  3
Text
  3
Thematic
  3
Map Base
  3
Ade Query
  3
Feature Class
  3
Layer
  3
Ade Project Query
  3
Raster
  3
Topology
  3
Topology Query
 92
        1
  2
CustomObjectType
 93
        2
 93
        2
 93
        2
 93
        2
 93
        2
 93
        2
 93
        2
 93
        1
 93
        1
 93
        1
 93
        1
 93
        1
 93
        1
 93
        1
 93
        1
 92
        1
  2
StyleCoExistanceType
 93
        1
 93
        1
 93
        1
 93
        1
 93
        1
 93
        1
 93
        2
 93
        0
 93
        0
 93
        0
 93
        0
 93
        0
 93
        0
 93
        0
 93
        0
  0
DMMAPMANAGER
  5
205
102
{ACAD_REACTORS
330
204
102
}
330
204
100
AcDbDictionary
281
     1
  3
DisplayMap1
350
20B
100
AcDbDictionaryWithDefault
340
20B
100
AcMapDMMapManager
 70
     1
340
20B
  0
DMSTYLELIBRARY
  5
206
102
{ACAD_REACTORS
330
204
102
}
330
204
100
AcMapDMStyleLibrary
 70
     1
 70
     1
360
207
  0
DICTIONARY
  5
216
102
{ACAD_REACTORS
330
204
102
}
330
204
100
AcDbDictionary
281
     1
  0
DICTIONARY
  5
2C7
330
1AC
100
AcDbDictionary
280
     1
281
     1
  3
ACAD_XREC_ROUNDTRIP
360
2C8
  0
DICTIONARY
  5
2CB
330
239
100
AcDbDictionary
280
     1
281
     1
  3
ACAD_XREC_ROUNDTRIP
360
2CC
  0
DICTIONARY
  5
194
330
22
100
AcDbDictionary
280
     1
281
     1
  0
DICTIONARY
  5
188
330
97
100
AcDbDictionary
280
     1
281
     1
  3
FBXASSET
360
189
  0
DICTIONARY
  5
186
330
96
100
AcDbDictionary
280
     1
281
     1
  3
FBXASSET
360
187
  0
DICTIONARY
  5
110
330
98
100
AcDbDictionary
280
     1
281
     1
  3
BUMPTILE
360
112
  3
DIFFUSETILE
360
111
  3
FBXASSET
360
18A
  3
OPACITYTILE
360
113
  3
REFLECTIONTILE
360
114
  0
DICTIONARY
  5
2C5
330
1AA
100
AcDbDictionary
280
     1
281
     1
  3
ACAD_XREC_ROUNDTRIP
360
2C6
  0
DICTIONARY
  5
2C9
330
238
100
AcDbDictionary
280
     1
281
     1
  3
ACAD_XREC_ROUNDTRIP
360
2CA
  0
DICTIONARY
  5
2B9
330
20D
100
AcDbDictionary
280
     1
281
     1
  3
ACAD_ROUNDTRIP_2008_TABLESTYLE_CELLSTYLEMAP
360
2BA
  0
DICTIONARY
  5
104
330
87
100
AcDbDictionary
280
     1
281
     1
  3
ACAD_ROUNDTRIP_2008_TABLESTYLE_CELLSTYLEMAP
360
2B8
  0
XRECORD
  5
2BD
102
{ACAD_REACTORS
330
2C3
102
}
330
2C3
100
AcDbXrecord
280
     1
  1
AcDb_Thumbnail_Schema
102
{ATTRRECORD
341
2BE
  2
AcDbDs::TreatedAsObjectData
280
     1
291
     1
102
ATTRRECORD}
102
{ATTRRECORD
341
2BF
  2
AcDbDs::Legacy
280
     1
291
     1
102
ATTRRECORD}
  2
AcDbDs::ID
280
    10
 91
        8
102
{ATTRRECORD
341
2C0
  2
AcDs:Indexable
280
     1
291
     1
102
ATTRRECORD}
102
{ATTRRECORD
341
2C1
  2
AcDbDs::HandleAttribute
280
     7
282
     1
102
ATTRRECORD}
  2
Thumbnail_Data
280
    15
 91
        0
  0
XRECORD
  5
2BE
102
{ACAD_REACTORS
330
2C3
102
}
330
2C3
100
AcDbXrecord
280
     1
  1
AcDbDs::TreatedAsObjectDataSchema
  2
AcDbDs::TreatedAsObjectData
280
     1
 91
        0
  0
XRECORD
  5
2BF
102
{ACAD_REACTORS
330
2C3
102
}
330
2C3
100
AcDbXrecord
280
     1
  1
AcDbDs::LegacySchema
  2
AcDbDs::Legacy
280
     1
 91
        0
  0
XRECORD
  5
2C0
102
{ACAD_REACTORS
330
2C3
102
}
330
2C3
100
AcDbXrecord
280
     1
  1
AcDbDs::IndexedPropertySchema
  2
AcDs:Indexable
280
     1
 91
        0
  0
XRECORD
  5
2C1
102
{ACAD_REACTORS
330
2C3
102
}
330
2C3
100
AcDbXrecord
280
     1
  1
AcDbDs::HandleAttributeSchema
  2
AcDbDs::HandleAttribute
280
     7
 91
        1
284
     1
  0
DMMAP
  5
20B
102
{ACAD_REACTORS
330
205
330
20E
102
}
330
205
100
AcMapDMMap
 70
     1
  1
Vorgabe
 70
     1
330
0
100
AcMapDMMap
 70
     1
 90
        1
360
20E
 90
        1
 40
1.797693134862314E+99
 70
     1
100
AcMapDMMap
 70
     6
 70
     0
 40
1.797693134862314E+99
290
     1
290
     1
 40
1.0
 40
3.0
  1
Legend
 90
        1
 40
1.797693134862314E+99
  1

 70
     0
 40
1.0
 70
     1
 90
        0
 90
        1
360
20F
 40
92.73625450020647
290
     0
290
     1
 40
1.0
 90
       40
290
     0
290
     1
 40
109380.6650273361
 40
349778.8244261114
 40
110578.2945726645
 40
350452.128273889
  1

290
     1
 40
123.5167496935449
 40
51.4866775483815
  0
DMSTYLECATEGORY
  5
207
102
{ACAD_REACTORS
330
206
102
}
330
206
100
AcMapDMStyleCategory
 70
     1
  1
Anzeigestile
 70
     0
  0
XRECORD
  5
2C8
102
{ACAD_REACTORS
330
2C7
102
}
330
2C7
100
AcDbXrecord
280
     1
102
DISPLAYNAME
  1
Imperial24
102
FLAGS
 90
        0
  0
XRECORD
  5
2CC
102
{ACAD_REACTORS
330
2CB
102
}
330
2CB
100
AcDbXrecord
280
     1
102
DISPLAYNAME
  1
Metric50
102
FLAGS
 90
        0
  0
XRECORD
  5
189
102
{ACAD_REACTORS
330
188
102
}
330
188
100
AcDbXrecord
280
     1
 70
     1
 90
429727718
  1
508B35C9-AEE7-456F-BE74-D52651303AC6
310
504B03040A0000080000B670623B3DEE336E79000000790000001B0000006175746F6465736B2D64657369676E2D7061636B6167652E786D6C3C3F786D6C2076657273696F6E3D22312E302220656E636F64696E673D227574662D3822203F3E3C666F726D6174733E3C666F726D61743E687474703A2F2F736368656D612E
310
6175746F6465736B2E636F6D2F64657369676E2D7061636B6167652F323030393C2F666F726D61743E3C2F666F726D6174733E504B0304140006080800B670623BD486FD9CA0000000F4000000130000005B436F6E74656E745F54797065735D2E786D6C7D8EC10E82300C865F65E91D8A1E8C310C0EEA1BF002731658846E
310
D98AC1B77784ABF1D8FE5FBFBF75BBCE937A534CCEB38643598122B6FEE978D0B0485F9C41B54DDD7D022595594E1A469170414C76A4D9A4D207E29CF43ECE46F218070CC6BECC4078ACAA135ACF422C856C0E68EA1BF5669944DDD7BCDE7B1F8E415D77AECB980613C2E4AC91FC167A2B244592486606FC29C8FD7F045B9A
310
EF7053A7E60B504B0304140006080800B670623B28ED286BEB0000007C01000008000000636F72652E786D6C8D90416EC3201045AF82665B6183218D6D61A254764FD00B204C5C94182C03558F5F9C3852BBEB6A467FFE9B197D71FA9E6FE8CBACC17AD7012D0820E3B41FAD9B3A48F1826B40272956EFE32F1B20A766D3C1
310
268314D3EAD3B24BDABB685CCCAAF3A3D94515828980F42D371D04FD696655A814B3235C8B45E9AB9A4C419F5D8653B2237A1CB163DE672FD6AC209BF3C08E0D1B30EB19C3FC9D72FCC6EB231EFA33EDE96BDD341517E5064B11EDFCBCAF57A3A2194156843498524CAA0FCA5B7268F9E185D42D21A2DCEC7FA0B48CFF8492
310
759155FBBB0F2C80A4F991FB408A72CB22977B50B96EB9C91F504B0304140006080800B670623B55019EA25F0000007C00000007000000636E782E786D6C4DCB3B0E80201045D1AD90E915ED2CF8AC45050C11660C8261F98AB1B07AC9C97D42D718D865D3E909258CFD00CCE24AC6E326A164D74DC0B4128928FF32603847
310
2BA13128B1252AC747C6BAB984FC68F0B87FE8960A5C09FE86CFB69FBA01504B0304140006080800B670623B7BC41AC871010000D40300000C0000006662782F636F72652E786D6CC553ED6E8320147D15C2DF4501B56B6D90A64BBB27D80B50A5CE54C120983EFEAE1F4DD7A56BBA5FF3879273EEE59E7310BE393735EA95
310
ED2AA333CC428A91D2B9292A5D66D8BB63B0C26823B835C67D2BC348CB46657880B1E0A535BE9DA1DC68A7B403549B42CDA0EC3AE530CA6B5864B8CB3F552343E91D5474A7B095F949962A6421D0502778E72C0840D390E18DC5F170E664C205F7BE2A66B62A605A75AC94C522DDEEE3651AEF837817C741F2CE92E02D592D
310
83FD6ECB76EC7595A651C2C9D02CB8AB9A8BBADC2AE954814544691A3016D0E883256BBA58278B17BA5A53CAC9507ED3E4DBE2C9265F691747B3DCA9ADC382819091F8E1162272A8933DE82182932144F88C09DF060D8140C84E1EEA8B8F1340BDCA9DB1093085F157AA97B557309586747CD0EF0B4EA64E983A6E0EAEEFCE
310
889E9EF17847386AA94B30211D2C0FDE0D3AF9A4610EAD5536E8DD1969631B593F67E381C33F5157F17725E5A636F6BF1491F980C8FC7B90E13E8A2F504B0304140006080800B670623B70102A487D0000009D0000000B0000006662782F636E782E786D6C4DCCD10A83201886E15B91FFDC95A5C30335ACCDFB886521330D
310
A76397BF1A1DECE883878F57749FD5A3B74D2F17830472A901D9F088930B8B849267CC01754AA418F3DF0D5018572BE160506249B16C274D761E8BCFBB7A179E27F65CB39A0F14D396184C9921B81F34C3ACA1B4B99ABB6E6F062A25AA5F69DF23ACBE504B0304140006080800B670623B3610CA3329010000120200003100
310
00006662782F42384135303843342D343331462D343546312D424341352D3532343432364645413344462F636F72652E786D6C8D515B6EC32010BC0AE22B55850D0E446E848992B43E412FE000495162B07854397EA176A4F62F3F2C9A9D991D58BEBB8F37F0AD7D30CE76905418026DA553C65E3A98E219B510EC04F7CEC5
310
3F3408EC30EA0E16180A7EF12E4D0B249D8DDAC68C5AA7F4020E21E80881BCE54B0783FCD2E3500D296646B856D320AFC34557A4CAEDCC133C449F0380794839A138B47B86DB2345744D7A44594FD0E1B867883594369BFE63BF7EEF793D0B054FC9A8456E548E63CE46FB674D8A58F068C6477CE9F510B582A2C1F80D1182
310
70F349E816B32D65AFB8DD62CCEB42FF274A937A52948C8DEB66893BCB021484D7734370E5D2E9F608A3EF93F3119479ABA0E50B14B8C298119A43CCC4FCFCECB8A18B6388CEE7EF5D5D4F994BD86CBBA182D76543B9FCAE2FD7B24DF103504B0304140006080800B670623B1B8617914E0100003303000030000000666278
310
2F42384135303843342D343331462D343546312D424341352D3532343432364645413344462F636E782E786D6CD593C16EC32010447F0571AD6CE3D489D20813A9877E410FBD62D82434182CC055F3F75D1292E692438FBD206B7698593D61BEFD1E2DF982108D773D6D6B460938E5B571FB9ECE6957AD29D90A1EBC4F7736
310
4A9C1CA1A759A682EF839FA72269D8C9D92654AD71C72206887E0E0A22CAF926B15E498B01E0AA19451807D01A34B919F16B070157417138917400F2F6FA41FCF0092A45DEE414C19BDC21783E4BD39D891265658C3D8DEA00A3ACE59CBC8678ACB54CB26EEB6BD7839D7E9348BE70AD9C8321B9BCA7F9A4A26C542347DEE0
310
50F09802D22BA6749A800A394DD62899107273365E3C82CFC6A55557BC06C10774B7ABE7AEC3B0F34CF06446280E154026D0542C187BA9DAB6628BF7B6DBB0E5A65B3EB1F58631DE64BBE083F7B65CC218087E22CABB042E51D1F2268F1FE12B3EA24D40D63E9CFE00120194D60B9D5BC67FE6D39CDF37E20AF817881F504B
310
0304140006080800B670623BBFEF2E3B690500003C100000340000006662782F42384135303843342D343331462D343546312D424341352D3532343432364645413344462F6F626A656374732E786D6CAD575D739B3814FD2B0CFB0C98D84E931D4227B6938EA793B6534F3BFB90198F0099B001899144EAECAFDF231018B0
310
D37A3FFC609090EEE7B94757C1FB7D915B2F54C88CB31BDB7727B64559CC938CA53776A576CE956DBD0F03C1B9EA2DB32D460A7A63EB693B0C52C1ABD24C257447AA5C8D66EF177F5832A68CDA569C13296F6C193FD182B8A4523CA1F2D94D88226EBADBBBBEDB2C1C8A4D05299F46424B222853B014F30C52ACC6287F389C
310
D85E1878FA7B18E87FB36AFAF62AAFF667A83F635211161F291B8999FAB3D5DDC5FCDA99CF6653677679E13B8BFBC5CAF1DF4D27CBCBE5F2FAF6EE1A8AA51290642C117467871F101B91C581D77CEA2C36869F3229E68CD1B8F61F1ED6361B89092D294B90C78C4A68EB793D190E7D1D9BDEE7A91E1B95FDE9F3BCEAEFE809
310
6A6D6F9F7D4B79F4275C90E7A04248AA51D5C4C738DAE06F72885AC4796EBE65D22A88A22223B995679120E2D50EB1542F098381188D4EA111AE3DB043FF20AF6F2B4AE3D7D83D65E5AECA730D4D3BAC91BD05FEA992B565D95F549CD6069B90AB2A63EACA38A45E4B6A87D781574F86817E4C2FCCC72690D62E2729520E37
310
9BAF234797BAF6D62B3BFC781FED37BA1E4F2B2F052FA9501A3E80569BB8F6A9A364D4FA67654E6F803383981F82F21591FF84F23D9882BC896C3FDBCF8C162508933B2E0AE4C69DD43F6BD2BE38DDDBF10BF86CB4FA784D37F3AF16075E67EC9030DECA1FC0A55373F5DFF3378C591FA9BDF485C10B0A8C8BA909E5262639
310
A8E72163488806A595734C81CB77D1DE0ED7604A303B76913CEC0272F412782FF88EFF4636D8AA56DF7B322474C4B767303F625997056C7B032C473C592B36CEBD15F3F9FF5233B7ABCDC74D257624A60F8658567497B14CE1EC3C80B76FD02011038F9EE9EB0F2E12387A9C844D3F09855125116D1D731DF8B43D2CF4E0A0
310
79A020C6BE946BCE0B7EA1E1219331CD73C228AF5A2DDD31A4B1DA918CE91350854D40A71723140BFA92E94E62B0626016CEFA5864A50E5977E8753CEDBEE1CBB7F52780D20E17AF0BA0F5F9B02A3AD07DCC732EB6D1EBB661421BE0C39E21BABF0FE16D22EA6929407C8DE596724C88B749B6DB5512BC7B228ADFD7CB7EA6
310
3A22397E690BA8D5D8D4E40CEC8CDA23C2C0B7D5898640101CEC9C6D331CE328CB93CAFBBAC70A642DF70DF95155945B52F08AA973C23469FD69ADEF84F7BB18F983A8F8C90E37F5D35980B2139A1C523540813E824EF83448CF7C72B598CE97D7CEEDDDDD3B6736BFBC771677EF66CE6A7E7139F7A793E9EDF2B2B3A8B624
310
0CDA13AA5F8388264EC4A0129909F3B7F5A16CEDF08128E97D680ACA4B9BE7B7B58BB638F0B00700EF36AE8B32A705658A68F83EE897FC2B41573190D1CCAF0B92D233A47CFEB019D9809933F67DD1A5467F8CF69AD9A5AE859342D45355448C64F968A371DC2D596ADC6E43D93D1B466F877A64E2893E54F23C4B40388995
310
525E5005DA3983ED45412510D3EFCA13737B3863F74BD30F2A12E5B4B5E489A025CE25500DB855B11ACE5BBFA185D35DD48D8DC3CE7DC69F2944DB42AA6F6CF09BCA622ADD08C7A36E7C6AE18000BAB08E040135C2D21C9D75B3A91B77BB746C403F38018DFE6EC939DD92F16B40BC05294B9CDA035AAD6D330AE27FE4786B
310
8E45145EA34A75BE1C263A676A35A8ACC6297337400BF16C54EF515F3F77CB77EB3583889C754FFA29081AA98E2222ADEF05DA3E63D2EDEA8B8756C05A7FB6CABC4A91CBF325398202CC952E70A008A830324BA200D5E5EF8F5F04C75DB4B0EE3340E071C98B823333B83577596BF3849B69F2085AA0FAFA212F26BEFF5877
310
FDE622B28D88A42E49E43326DA82D31E8CB006401E1DA726059ECEC168F97A6599036306A135688F9AD2E61A6EA178F4CD51974A9F2CCB9F36FE5EBD14601068D9C3BF01504B0304140006080000B670623B000000000000000000000000350000006662782F42384135303843342D343331462D343546312D424341352D35
310
32343432364645413344462F76657274696365732E62696E504B0304140006080800B670623BF270F1330600000004000000360000006662782F42384135303843342D343331462D343546312D424341352D3532343432364645413344462F747269616E676C65732E62696E636660600000504B0304140006080000B67062
310
3B000000000000000000000000370000006662782F42384135303843342D343331462D343546312D424341352D3532343432364645413344462F617474726962757465732E62696E504B0304140006080800B670623B08DA0BD19000000041010000360000006662782F42384135303843342D343331462D343546312D4243
310
41352D3532343432364645413344462F6469726563746F72792E786D6C858F410AC3201045AF22B36F53E9A60B35CBEEBAE80D244E44489C6234F4F835464A48035D0DF398FF9F8AF63D0E6CC63039F212F8F9020C7D47C6792B21C5FE7403D62A1188E2E60C98D7234A5830286103A55745067B9D86B8A3CF9C7F90C11DE6
310
07FB144396D7B6A82D282E9A152AD114D5EF2CB866EEE831B8EEA07A7BB5A8D7D61A2BAAEB7FD5F70921FF497D00504B0304140006080800B670623B3B4606F3FE000000A00100003B0000006662782F42384135303843342D343331462D343546312D424341352D3532343432364645413344462F7265736F75726365732F
310
636F72652E786D6C8D504B6E833010BD0A9A6D65B08134808CA354A427E8052C332156828DFCA97AFC9A40A576D7CDCCE87D344F8F9FBEE647F689CE6B6B7A6039850C8DB2A336530F315C4903D94970676DF82583CCC8197B5861107C72362E3BA4AC096842428D1D7107A5F71820538F74F4E0D50D6799CB1892C2DFF345
310
AABB9C306779A2934E701F5C0A906D4FD609C2A1B7D129F4BCD858C163D4E3AED163FAA9AF1A1D88F67CA98E6D35906AA82A52BFB39ABCD5CD915C86331BD86BD3B665CD8BD52C78D0F34F46E550061C419494B6843142CB0F5677F4D0D58717DA7494F26295FF31C565FCA7296A13AA728FBBD93C0896823C09C18BB5AFB4
310
9E65A6BD762BBE01504B010214000A0000080000B670623B3DEE336E79000000790000001B00000000000000000000000000000000006175746F6465736B2D64657369676E2D7061636B6167652E786D6C504B01021400140006080800B670623BD486FD9CA0000000F40000001300000000000000000000000000B2000000
310
5B436F6E74656E745F54797065735D2E786D6C504B01021400140006080800B670623B28ED286BEB0000007C010000080000000000000000000000000083010000636F72652E786D6C504B01021400140006080800B670623B55019EA25F0000007C000000070000000000000000000000000094020000636E782E786D6C50
310
4B01021400140006080800B670623B7BC41AC871010000D40300000C00000000000000000000000000180300006662782F636F72652E786D6C504B01021400140006080800B670623B70102A487D0000009D0000000B00000000000000000000000000B30400006662782F636E782E786D6C504B01021400140006080800B6
310
70623B3610CA3329010000120200003100000000000000000000000000590500006662782F42384135303843342D343331462D343546312D424341352D3532343432364645413344462F636F72652E786D6C504B01021400140006080800B670623B1B8617914E010000330300003000000000000000000000000000D10600
310
006662782F42384135303843342D343331462D343546312D424341352D3532343432364645413344462F636E782E786D6C504B01021400140006080800B670623BBFEF2E3B690500003C10000034000000000000000000000000006D0800006662782F42384135303843342D343331462D343546312D424341352D35323434
310
32364645413344462F6F626A656374732E786D6C504B01021400140006080000B670623B0000000000000000000000003500000000000000000000000000280E00006662782F42384135303843342D343331462D343546312D424341352D3532343432364645413344462F76657274696365732E62696E504B010214001400
310
06080800B670623BF270F133060000000400000036000000000000000000000000007B0E00006662782F42384135303843342D343331462D343546312D424341352D3532343432364645413344462F747269616E676C65732E62696E504B01021400140006080000B670623B00000000000000000000000037000000000000
310
00000000000000D50E00006662782F42384135303843342D343331462D343546312D424341352D3532343432364645413344462F617474726962757465732E62696E504B01021400140006080800B670623B08DA0BD1900000004101000036000000000000000000000000002A0F00006662782F42384135303843342D3433
310
31462D343546312D424341352D3532343432364645413344462F6469726563746F72792E786D6C504B01021400140006080800B670623B3B4606F3FE000000A00100003B000000000000000000000000000E1000006662782F42384135303843342D343331462D343546312D424341352D3532343432364645413344462F72
310
65736F75726365732F636F72652E786D6C504B0506000000000E000E0080040000651100000000
  0
XRECORD
  5
187
102
{ACAD_REACTORS
330
186
102
}
330
186
100
AcDbXrecord
280
     1
 70
     1
 90
429727718
  1
887D55A9-D0DD-414E-B741-A7DCD4DA2B4C
310
504B03040A0000080000B670623B3DEE336E79000000790000001B0000006175746F6465736B2D64657369676E2D7061636B6167652E786D6C3C3F786D6C2076657273696F6E3D22312E302220656E636F64696E673D227574662D3822203F3E3C666F726D6174733E3C666F726D61743E687474703A2F2F736368656D612E
310
6175746F6465736B2E636F6D2F64657369676E2D7061636B6167652F323030393C2F666F726D61743E3C2F666F726D6174733E504B0304140006080800B670623BD486FD9CA0000000F4000000130000005B436F6E74656E745F54797065735D2E786D6C7D8EC10E82300C865F65E91D8A1E8C310C0EEA1BF002731658846E
310
D98AC1B77784ABF1D8FE5FBFBF75BBCE937A534CCEB38643598122B6FEE978D0B0485F9C41B54DDD7D022595594E1A469170414C76A4D9A4D207E29CF43ECE46F218070CC6BECC4078ACAA135ACF422C856C0E68EA1BF5669944DDD7BCDE7B1F8E415D77AECB980613C2E4AC91FC167A2B244592486606FC29C8FD7F045B9A
310
EF7053A7E60B504B0304140006080800B670623BBC1638F5EC0000007C01000008000000636F72652E786D6C8D90416EC3201045AF82665B61836BE2D8C24471DB9CA01740401C94182C03558F5F9C3852BBEB6A467FFE9B197D7EF89E6EE8CB2CC17AD7032D0820E394D7D68D3DA478C67B4007C117EFE32F1B202727D3C3
310
2A83E0E3E2D3BC49CABB685CCCAAF3DA6CA20CC14440EA969B1E82BA98491632C5EC08D76296EA2A4753D06797E194AC468F2356E77DF66CCD02825543D50CACC62D39ED70FDC68EB8FD68F6F8787A6784342D1DDA1D2F5758F068A7E77DB518198D065111D2624A31A93E69DD11D6D5EC85EC3B4278B9DAFF4069D6FF8492
310
75F1B5DADE7D600104CD8FDC0782976B16B9DC83CA75CD4DFC00504B0304140006080800B670623B55019EA25F0000007C00000007000000636E782E786D6C4DCB3B0E80201045D1AD90E915ED2CF8AC45050C11660C8261F98AB1B07AC9C97D42D718D865D3E909258CFD00CCE24AC6E326A164D74DC0B4128928FF326038
310
472BA13128B1252AC747C6BAB984FC68F0B87FE8960A5C09FE86CFB69FBA01504B0304140006080800B670623B3586FFB671010000D40300000C0000006662782F636F72652E786D6CC553ED6E8320147D15C2DF4541A76D6D90A6DDD627D80B50A4CE54C120983EFEAE1F4DD7A55BBA5FF3879273EEE59E7310B6393735EA
310
95ED2AA3731C851423A5A5292A5DE6D8BB63B0C268C39935C67D29C3488B46E578803167A535BE9D2169B453DA01AA4DA16650749D7218C91A1639EEE4876A4428BC838AEE14B6429E44A9C228041AEA38EB9C0501681A32BC313F1ECE8C4C3867DE57C5CC56054CAB8E95B298A7F12E5EEED224C8E87E11242FE936C8DE96
310
AB60BB7F4D295D66D12E5B30323473E6AAE6A24E5A259C2A308F29CD82280A68FC1E256B9AAE93F489AED694323294DF34F9B678B0C957DA3DC7B3DCA9ADC33C022123F1CD2D44E450277AD04338234388F01913BE0D1A0281909D38D4171F27807A259DB1093085F157AA17B557309586747CD0CF0B46A64E983A6E0EAEEF
310
CE881F9EF1FB8E70D44297604238581EBC1B74B249C31C5AAB6CD0BB33D2C636A27ECCC62F0EFF445DC5DF95244D6DEC7F2922F30191F9F720C37DE49F504B0304140006080800B670623B4220A0FF7D0000009D0000000B0000006662782F636E782E786D6C4DCCD10A83201886E15B91FFDCE542CB0335D0EC3E6259C84A
310
C3E9D8E5AF46073BFAE0E1E315DD675BD1DBA5978F41C2FD4600B9F088930F8B849267CC01754AA418F3DF0D50183727E164506249B1EC174D6E1ECB9A0F5D7D785E68DB8151CD286E5A5363CA6B8A39E90D36D40E96B086F55A43A544F52B1D7B86D517504B0304140006080800B670623B2FA3FEDE290100001202000031
310
0000006662782F45374635344235342D363743322D343832342D383044432D4334454645303536354442422F636F72652E786D6C8D515B6EC32010BC0AE22B55850D2E386E848994D7097A0117488A1283C5A3CAF10BB523B57FF961D1ECCCECC0F2ED7DBC816FED8371B687A4C210682B9D32F6D2C314CFA883602BB8772E
310
FEA141608751F7B0C050F08B77695A20E96CD43666D43AA5177008414708E42D5F7A18E4971E876A483133C2B59A06791D2EBA22556E679EE021FA1C00CC43CA09C5717D6274C7286AD7FB06D1AEA1A8C3873DDAD3E3E98859CB0EBB1DAF67A1E02919B5C88DCA71CCD968FFAC49110B1ECDF8882FBD1EA256503418BF2342
310
106E3E08DD60B6A1EC15771B8C795DE8FF4469524F8A92B1F1AD59E2CEB20005E1F5DC105CB9F4797B84D1F7C9F908CABC55D0F2050A5C61CC1AD2F27A26E6E767C7962E8E213A9FBF7775FDCC5CC266DB960A5E970DE5F2BBBE5CCB36C50F504B0304140006080800B670623B1B8617914E01000033030000300000006662
310
782F45374635344235342D363743322D343832342D383044432D4334454645303536354442422F636E782E786D6CD593C16EC32010447F0571AD6CE3D489D20813A9877E410FBD62D82434182CC055F3F75D1292E692438FBD206B7698593D61BEFD1E2DF982108D773D6D6B460938E5B571FB9ECE6957AD29D90A1EBC4F77
310
364A9C1CA1A759A682EF839FA72269D8C9D92654AD71C72206887E0E0A22CAF926B15E498B01E0AA19451807D01A34B919F16B070157417138917400F2F6FA41FCF0092A45DEE414C19BDC21783E4BD39D891265658C3D8DEA00A3ACE59CBC8678ACB54CB26EEB6BD7839D7E9348BE70AD9C8321B9BCA7F9A4A26C542347DE
310
E050F09802D22BA6749A800A394DD62899107273365E3C82CFC6A55557BC06C10774B7ABE7AEC3B0F34CF06446280E154026D0542C187BA9DAB6628BF7B6DBB0E5A65B3EB1F58631DE64BBE083F7B65CC218087E22CABB042E51D1F2268F1FE12B3EA24D40D63E9CFE00120194D60B9D5BC67FE6D39CDF37E20AF817881F50
310
4B0304140006080800B670623B29652116630500003C100000340000006662782F45374635344235342D363743322D343832342D383044432D4334454645303536354442422F6F626A656374732E786D6CAD575D739B3814FD2B0CFB0C989834C90EA1639B24E3E9A6EDD4D3CE3E64C623834CD8006224913AFDF57B040203
310
B65BEF871F0C12D2FD3CF7E8CA7FBFCB33E3957291B2E2D674ED8969D02262715A24B76625B7D6B569BC0F7CCE98EC2D338D82E4F4D654D366E0279C55A59E8AE99654991CCDDECFFF3444440B6A1A514684B83545F44C7362934AB2988A173B2692D8C97667BB76B3702836E1A47C1E092D09A78584A5982F20C5688C7287
310
C389E904BEA3BE07BEFAD7ABA6A75739B53F43FD69212429A20365233153D70BEF2E2E6FAC4BCF9B5ADEBB0BD79ADFCF43CBBD9A4E16EF168B9BD9DD0D140BC921495BC2E9D60C1E101B9E46BED37CEA2CD6861F3329624541A3DA7F7858DBAC25C6B4A4458C3CA654405BCFEBC970E8AAD8F43E4FD558ABEC4F9FE7557F47
310
4F506B7BFBEC5BCA367FC105710E2AB8A00A554D7CB4A30DFE26FBA86D18CBF4B75418399194A72433B274C3097F33032C554B027F2046A1932B842B0FCCC0DDCBEBDB8AD2F835768F59B9ADB24C41D30C6A64AF817F2A456D59FA83F2E3DA60137255A585BCD60EC9B7929AC18DEFD49381AF1ED30BFDB109A4B1CD488294
310
C3CDE6EBC8D185AABD6568061FEE37BB95AAC7E3CA4BCE4ACAA5820FA0D526AE7DAA2869B5EE5999531BE0CC20E6FBA07C41E43FA27CF7A6206F3CDD793B4F6B919C1462CB788EDCD893FA674CDA17AB7B3B7C019F8D561FAEE966FED562DFE98C1D12C6A9FC015C2A35D7FF3D7FC398F591DA4B5FE0BFA2C0189FEA50AE22
310
92817A1ED3020951A03432862970F976B33383259812CC8E5D240BBA801CBCF8CE2BBEE3BF910DB6AAD5F79E05123AE2DB33981FB1ACCB02B69D00CB014FD68AB573A7627EF9BFD4CC2C5C7D58557C4B22FAA88925A4DBB44825CECE3D78FB060D1231F0E885BE7D673C86A3874958F593906B5502D1563157814FDAC3420D
310
F69A070A22EC4B98E23CFF171A1E5311D12C23056555ABA53B8614563B92D17D02AAB009E8F46284624E5F53D5490C560CCCC2591FF1B45421EB0EBD8EA7ED13BE7C5D7E0428CD60FEF60779EB13E6664FF711CB185F6FDED60D139A001FF60CD1FD6D086F1D51474901E26B2CB794A343BC8ED3EDB612E0DD2351FCB65CF4
310
33D511C9E14B5B40ADC6A6263DB0336A8F700DDF56271A024E70B0B3629DE21847591E55DED73D56206AB927E46FAABC5C939C55853C274C93D69FD6FA4E78BF8B11DF898C9ECD60553FAD39283BA6F18984AA23E8884F83F45C5F5F859797B31B2B9C84A1E5B9DE9D35BFF25C6B76152E422F9C5DCC3D847F5801ED09D5AF
310
41441327A25FF15487F9EB725FB666F048A4701E9A827292E6F97569A32DF61DEC01C0BB8DCBBCCC684E0B49147C1FD54BF685A0AB18C868E6973949E819523E3DAC463660E68C7D9F55A9D1EFA3BD7A76A16AE1A810F95CE59B82A4D968A376DC2E8B44BBDD86B27B368CDE0ED548C7137DA860591A83706223A12CA712B4
310
7306DBF39C0A20A6DF95C7FAF670C6EED7A61F946493D1D6926782963813403548A78AE470DEF80D2D9CEAA26E4D1C76F60BFE74219A06527D6B82DF641A51616F703CAAC6A7160E08A00BEB4810A0274592A1B36E3675E36E978A0DE80727A0D6DF2D39A75BD27E0D8837276589537B40ABB56D5A41F48F1C6FCD3188C4EB
310
A6929D2FFB89CE995A4D00AE813BDD032DC48B56BD437DFDDC2DD7AED70C2272D63DE9A72068A45A92F0A4BE17A8A06B9366E16707AD80B1FC649459952097E74BB23805982B55E0401150A165964402AA8BDF9F3E7386BB686EDCA780C0D382E5392BF460A6EFB2C6EA1937D3F809B440D5F5435C4C5CF7A9EEFAF54564BD
310
2182DA24162F98680B4E7930C21A0079709CEAEB99A372305ABE0C0D7D6078105A83F6A0296DAEE1068A47DD1C55A9F4C9B2FC69E3EFD44B81028E963DF81B504B0304140006080000B670623B000000000000000000000000350000006662782F45374635344235342D363743322D343832342D383044432D433445464530
310
3536354442422F76657274696365732E62696E504B0304140006080800B670623BF270F1330600000004000000360000006662782F45374635344235342D363743322D343832342D383044432D4334454645303536354442422F747269616E676C65732E62696E636660600000504B0304140006080000B670623B00000000
310
0000000000000000370000006662782F45374635344235342D363743322D343832342D383044432D4334454645303536354442422F617474726962757465732E62696E504B0304140006080800B670623B08DA0BD19000000041010000360000006662782F45374635344235342D363743322D343832342D383044432D4334
310
454645303536354442422F6469726563746F72792E786D6C858F410AC3201045AF22B36F53E9A60B35CBEEBAE80D244E44489C6234F4F835464A48035D0DF398FF9F8AF63D0E6CC63039F212F8F9020C7D47C6792B21C5FE7403D62A1188E2E60C98D7234A5830286103A55745067B9D86B8A3CF9C7F90C11DE607FB144396
310
D7B6A82D282E9A152AD114D5EF2CB866EEE831B8EEA07A7BB5A8D7D61A2BAAEB7FD5F70921FF497D00504B0304140006080800B670623B6378F24DFF000000A00100003B0000006662782F45374635344235342D363743322D343832342D383044432D4334454645303536354442422F7265736F75726365732F636F72652E
310
786D6C8D504B6E833010BD0A9A6D65B0094E42641C85B639412F6099496225D8C89FAAC7AF09546A77DDCC8CDE47F3F4C4F16B7C149FE88371B603565228D06A37187BED20C50BD9437194C23B177FC9A0B06AC40E6618A4B87A97A615D2CE46B431A3D60DB8822A048C50E8473E3A08FA86A32A558A5911EEE5A4F45D5DB1
310
6465A6B34E8A107D0E502C4FE609D26370C96B0CA25A58295232C3AA3143FE692E063D485EF7F5AEE71BD2D2F39634AFFC44DAF7DD9E9CCE6F9CD25DCBFA762BAAD92C4534E34F46ED51451C40D694B6843142EB0FD61C283F34FC85EE0F948A6A96FF31A569F8A729191B37F51A77B105902C0779125254735F793DCBCC7B
310
EE567E03504B010214000A0000080000B670623B3DEE336E79000000790000001B00000000000000000000000000000000006175746F6465736B2D64657369676E2D7061636B6167652E786D6C504B01021400140006080800B670623BD486FD9CA0000000F40000001300000000000000000000000000B20000005B436F6E
310
74656E745F54797065735D2E786D6C504B01021400140006080800B670623BBC1638F5EC0000007C010000080000000000000000000000000083010000636F72652E786D6C504B01021400140006080800B670623B55019EA25F0000007C000000070000000000000000000000000095020000636E782E786D6C504B010214
310
00140006080800B670623B3586FFB671010000D40300000C00000000000000000000000000190300006662782F636F72652E786D6C504B01021400140006080800B670623B4220A0FF7D0000009D0000000B00000000000000000000000000B40400006662782F636E782E786D6C504B01021400140006080800B670623B2F
310
A3FEDE290100001202000031000000000000000000000000005A0500006662782F45374635344235342D363743322D343832342D383044432D4334454645303536354442422F636F72652E786D6C504B01021400140006080800B670623B1B8617914E010000330300003000000000000000000000000000D2060000666278
310
2F45374635344235342D363743322D343832342D383044432D4334454645303536354442422F636E782E786D6C504B01021400140006080800B670623B29652116630500003C10000034000000000000000000000000006E0800006662782F45374635344235342D363743322D343832342D383044432D4334454645303536
310
354442422F6F626A656374732E786D6C504B01021400140006080000B670623B0000000000000000000000003500000000000000000000000000230E00006662782F45374635344235342D363743322D343832342D383044432D4334454645303536354442422F76657274696365732E62696E504B01021400140006080800
310
B670623BF270F13306000000040000003600000000000000000000000000760E00006662782F45374635344235342D363743322D343832342D383044432D4334454645303536354442422F747269616E676C65732E62696E504B01021400140006080000B670623B0000000000000000000000003700000000000000000000
310
000000D00E00006662782F45374635344235342D363743322D343832342D383044432D4334454645303536354442422F617474726962757465732E62696E504B01021400140006080800B670623B08DA0BD190000000410100003600000000000000000000000000250F00006662782F45374635344235342D363743322D34
310
3832342D383044432D4334454645303536354442422F6469726563746F72792E786D6C504B01021400140006080800B670623B6378F24DFF000000A00100003B00000000000000000000000000091000006662782F45374635344235342D363743322D343832342D383044432D4334454645303536354442422F7265736F75
310
726365732F636F72652E786D6C504B0506000000000E000E0080040000611100000000
  0
XRECORD
  5
112
102
{ACAD_REACTORS
330
110
102
}
330
110
100
AcDbXrecord
280
     1
270
     1
271
     1
  0
XRECORD
  5
111
102
{ACAD_REACTORS
330
110
102
}
330
110
100
AcDbXrecord
280
     1
270
     1
271
     1
  0
XRECORD
  5
18A
102
{ACAD_REACTORS
330
110
102
}
330
110
100
AcDbXrecord
280
     1
 70
     0
 90
1778669749
  1
9BF507EE-FAF7-4A99-A33D-4EE51894BC40
310
504B03040A0000080000B670623B3DEE336E79000000790000001B0000006175746F6465736B2D64657369676E2D7061636B6167652E786D6C3C3F786D6C2076657273696F6E3D22312E302220656E636F64696E673D227574662D3822203F3E3C666F726D6174733E3C666F726D61743E687474703A2F2F736368656D612E
310
6175746F6465736B2E636F6D2F64657369676E2D7061636B6167652F323030393C2F666F726D61743E3C2F666F726D6174733E504B0304140006080800B670623BD486FD9CA0000000F4000000130000005B436F6E74656E745F54797065735D2E786D6C7D8EC10E82300C865F65E91D8A1E8C310C0EEA1BF002731658846E
310
D98AC1B77784ABF1D8FE5FBFBF75BBCE937A534CCEB38643598122B6FEE978D0B0485F9C41B54DDD7D022595594E1A469170414C76A4D9A4D207E29CF43ECE46F218070CC6BECC4078ACAA135ACF422C856C0E68EA1BF5669944DDD7BCDE7B1F8E415D77AECB980613C2E4AC91FC167A2B244592486606FC29C8FD7F045B9A
310
EF7053A7E60B504B0304140006080800B670623BCA089DFFEC0000007C01000008000000636F72652E786D6C8D90416E83301045AF62CDB632D8402020E32882F604BD80653BC44AB011B6AB1EBF262152BBEB6A467FFE9B197D76FA9EEFE84BAFDE38DB03CD08206DA553C64E3DC470C1474027CE56E7C22F1B202B66DDC3
310
260367D3EAE2B24BD2D9A06D48AA754AEFA2F05E0740F29E9A1EBCBCEA59642286E4F0B76C11F226269DD15797E0188D42CF2346A57DE662F40ABCAEC77628C6120F654571D50C04B7F5B9C1E3997CD4F550BE3745C3F20DE62C98F9755FAE5A04AD801784B498524C8A4F5A75E4D055873772EC0861F966FF03C545FD138A
310
C686B2D8DF7D621E384D8F3C069CE55B16A93C824A75CB8DFF00504B0304140006080800B670623B55019EA25F0000007C00000007000000636E782E786D6C4DCB3B0E80201045D1AD90E915ED2CF8AC45050C11660C8261F98AB1B07AC9C97D42D718D865D3E909258CFD00CCE24AC6E326A164D74DC0B4128928FF326038
310
472BA13128B1252AC747C6BAB984FC68F0B87FE8960A5C09FE86CFB69FBA01504B0304140006080800B670623B68FC0B7272010000D40300000C0000006662782F636F72652E786D6CC5535B6E833010BC8AE5DF0A6C1E8124328E22D29EA01770C0A128602363A31CBFCB234A53A555FA553EC09AD9F5CE8C31DB5DDA060D
310
D2F4B556190E7C8A9154852E6B5565D8D993B7C668C799D1DA7E29C3488956667884316795D1AE5BA0422B2B950554E9522EA0E87B69312A1A5864B82F3E642B7CE12C54F467BF13C55954D20F7CA0A18EB3DE1A1080E621E31BF3D3F1C2C88C73E65C5D2E6C5DC2B4FA544B8379921C36797888BC3C8A032F4E73EA6D927D
310
EA1DF6F42D49F2E8350D5346C666CE6CDD5ED515460A2B4BCC434A375E1078347C0FE22D5D6DE3D50B5D6F2965642CBF6B725DF96493AB958DC245EEDCD6631E809089F8E61622B2A81703E8219C913144F84C09DF070D8140C8561C9BAB8F3340832CAC363130A576376A108D933095FA747AD0CF0B46E64E983A6D0EAE1F
310
CE089F9EF1FB8E70D44255604258581E9D1D75B259C3125A278D37D80B52DAB4A279CEC62F0EFF44DDC43F9454E8469BFF5244960322CBEF41C6FBC83F01504B0304140006080800B670623B0F71DDB67E0000009D0000000B0000006662782F636E782E786D6C4DCCD10A83201886E15B91FFDCA54DB73F502386BB8F5816
310
32D3703976F9ABD1C18E3E78F87855FB990379BBFCF2296AE02706C4C5471A7C9C349475A408A4352AA7B4FEDD80C47E761A7606A3A69CCA72D0E0C6BE8475D3E0E3F3409428EA6B27A84079A782899AA2EC1A7AE3ECCC2FD858CB2D544655BFD2B67BD87C01504B0304140006080800B670623BE134B4FB28010000120200
310
00310000006662782F38353834323741342D343835462D343034322D383541392D4331303331363839454531452F636F72652E786D6C8D515B6EC32010BC0AE22B55850D0EA424C24451959EA0172086A42831583CAA1CBF503B52FB971F16CDCECC0EACD8DFC71BF836215AEF7A481A0C817183D7D65D7A98D3197108F652
310
04EFD31F1A044E8DA6871586525C82CFD3020DDE25E352419DD76601558C264130DCCAA58771F832A36A544E8511AFCDA486ABBA988634A55D7852C4144A00300FA927949C71DABD1D28A29C7D208A6987383B6CD13BC16BB2E1DBE3911C453B0BA5C8D9EA456E758963CFD684674DAA588A64C747FC2118958C86B2C3788B
310
0841B8FB247487D98EB257CC77188BB6D2FF89F2A49F1465EBD2BA5BE2CEB2082511EDDC9042FB7CBA3DC298FBE4430275DE2A9AE1054ADC60CC08E3A29D89E5F9C5714317C7987C28DFBBBA9E0A97B0D97643A568EB864AF95D5FA9759BF207504B0304140006080800B670623B1B8617914E010000330300003000000066
310
62782F38353834323741342D343835462D343034322D383541392D4331303331363839454531452F636E782E786D6CD593C16EC32010447F0571AD6CE3D489D20813A9877E410FBD62D82434182CC055F3F75D1292E692438FBD206B7698593D61BEFD1E2DF982108D773D6D6B460938E5B571FB9ECE6957AD29D90A1EBC4F
310
77364A9C1CA1A759A682EF839FA72269D8C9D92654AD71C72206887E0E0A22CAF926B15E498B01E0AA19451807D01A34B919F16B070157417138917400F2F6FA41FCF0092A45DEE414C19BDC21783E4BD39D891265658C3D8DEA00A3ACE59CBC8678ACB54CB26EEB6BD7839D7E9348BE70AD9C8321B9BCA7F9A4A26C542347
310
DEE050F09802D22BA6749A800A394DD62899107273365E3C82CFC6A55557BC06C10774B7ABE7AEC3B0F34CF06446280E154026D0542C187BA9DAB6628BF7B6DBB0E5A65B3EB1F58631DE64BBE083F7B65CC218087E22CABB042E51D1F2268F1FE12B3EA24D40D63E9CFE00120194D60B9D5BC67FE6D39CDF37E20AF817881F
310
504B0304140006080800B670623B5933D422630500003B100000340000006662782F38353834323741342D343835462D343034322D383541392D4331303331363839454531452F6F626A656374732E786D6CAD575B6FA33814FE2B887D0642934E9B156594264D158D3A534DD4D13E548A0C38942D60649B4EBABF7E3F8321
310
40924EF6928780CDF1B97EE762EFF32E4B8D37CA45C2F21BD3B547A641F39045491EDF98A5DC5AD7A6F1D9F73863B243661A39C9E88DA9B64DDF8B392B0BBD15D12D295339D85DDEFE618890E6D434C2940871638AF08566C426A5641115AF764424B1E3EDCE76ED9AB0CF36E6A47819302D08A7B984A6D8CFC1C5A89572FB
310
CB91E9F89EA3BEFB9EFAD754E3D3544E654F5F7E920B49F2F040D880CDD89D2CEE2E2EA7D6E56432B6269F2E5CEB7679BBB0DCABF168FE693E9FCEEEA6102C240727AD09A75BD3BF876F78127A4EFDA9D5582B7E4CA590E5390D2BFB6161A5B3E618D182E611E2985001691DAB47FDA5AB7CD3F93C566B2DB2BB7D9E55DD13
310
1D468DEECDB3AB290BFE8409E21C54704115AA6AFF68436BFC8DF65E0B184BF5B74418199194272435D224E084BF9B3E481589EFF5D828747285706581E9BB7B7E5D5D911ABFC6EE312DB7659A2A689A7E85EC0DF04FA5A8344BFEA2FCB834E8845895492EAFB541F2BDA0A63FF59C6AD3F7D4637CA13FD68E34B629891172
310
98597F1D183A57B9B75A98FE9765B05BAB7C3C2EBCE0ACA05C2AF8005A4DE09AA7F29216EB9E15397500C6F47CBE77CA7778FE2BD277AF0AE2C693DD6437D1522427B9D8329E2136F6A8FA19A3E6C56ADF0E5F50CF06D48734EDCEBF22F69C56D97EC138153F804B85E6FABFC7AFEFB32E523BE1F3BD372418E363EDCA7548
310
52949E8724474014288D94610BB57C1BEC4C7F854A89CA8E5324F55B871CBC78CE1BBEE3BFE68D6A5589EF3C730474506FCFA8FCF0659516D0ED04580EEA6425581B77CAE797FF4BCECC16EB2FEB926F49481F746159D06D922712BD730FDEAE42BD40F42C7AA5EF3F198F60E86110D6DD20645A9480B795CF95E3E3A659A8
310
C55E724F408873315335CFFB8584874484344D494E59D94869DB90C26A5B64F49C802CAC1D3ABE18A098D3B7444D123D8A9E5AE8F5214F0AE5B2B6E9B575DA3E61CBD3EA2B4009FA940524DD1305FB6A1FB294F14DF0BEA90BA109ECE1481FDC3FFAE8D60E75141700BE82725371B4873751B2DD960265F788137FACE6DD40
310
B575E4F0A5C99F46629D92131467A41EE11ABD8D4CCC039CA0AFB37C93A08B232B8F0AEFCA1E0A1015DF13FC83322B362463652ECF71D3A8B1A7D1BE65DE1D62C44F22C317D35F574FEB16153BA2D13E543D10A80E74C4A65E78A6B7CBCBD1D5DD9DB59C2DAFACC96C3AB566E3F1C29ADCDD5DBAD7D3C9ED7C822ED74F80A6
310
41755310DE4443F44A9E68373FADF6596BFA0F440AE7BECE2727AE9F4F2B1B53B1E7E00CF0DD1E5C65454A339A4BA2D0FBA05ED2EF0443458F47BDBFCA484CCFE0F2ED7E3DD0013B679C7B5499467F0ECEEADDB9CA85A34CE44B99053949D2C1416DB85DE4B136BB7165FBAC0B7AB3542BED4F8CA182A549847A1319316519
310
95A83A67147B9E5101C47487F2485F1ECE38FD568F839204296D3479219888530154036E6528FBFBC66F98E0D4107563A2D7D9AFF8D389681A08F58D89F22693900A3B407754734FC51C10C010D6D640809EE4718AC1BA3ED4AEDB53CA37283F68805A7E4B72CEB0A4EDEAD5DD8C14059A76AFAA56BA6901E13F32BC51C720
310
12AF41295B5BF61BAD3195181FB506E6B40F4C10AF5AF40EF9F5B159AE5DD1F43C72D635E94310D45C2D49785C5D0B94D3B54AB3C5A38349C0587D338AB48C11CBF339599C02CCA54A70A008A8D03C0B2201D5F9EFCF8F9CE12A9A19CB0410789EB32C63B95ECCF455D658BFE0621A3DA32C5075FB101723D77DAE867E7D0F
310
D90444509B44E2151B4DC2290B065803200FBAA9BE9D392A0603F2D5C2D00D6302A615680F66D2FA166E2079D4C551A54AB758161FCEFD4E450A14704CECFEDF504B0304140006080000B670623B000000000000000000000000350000006662782F38353834323741342D343835462D343034322D383541392D4331303331
310
363839454531452F76657274696365732E62696E504B0304140006080800B670623BF270F1330600000004000000360000006662782F38353834323741342D343835462D343034322D383541392D4331303331363839454531452F747269616E676C65732E62696E636660600000504B0304140006080000B670623B000000
310
000000000000000000370000006662782F38353834323741342D343835462D343034322D383541392D4331303331363839454531452F617474726962757465732E62696E504B0304140006080800B670623B08DA0BD19000000041010000360000006662782F38353834323741342D343835462D343034322D383541392D43
310
31303331363839454531452F6469726563746F72792E786D6C858F410AC3201045AF22B36F53E9A60B35CBEEBAE80D244E44489C6234F4F835464A48035D0DF398FF9F8AF63D0E6CC63039F212F8F9020C7D47C6792B21C5FE7403D62A1188E2E60C98D7234A5830286103A55745067B9D86B8A3CF9C7F90C11DE607FB1443
310
96D7B6A82D282E9A152AD114D5EF2CB866EEE831B8EEA07A7BB5A8D7D61A2BAAEB7FD5F70921FF497D00504B0304140006080800B670623BD9A3B367FE000000A00100003B0000006662782F38353834323741342D343835462D343034322D383541392D4331303331363839454531452F7265736F75726365732F636F7265
310
2E786D6C8D504B6E833010BD0A9A6D65B01D0201194711694FD00B586642AD043BF2A7EAF16B122AB5BB6E6646EFA3797AE2F8B5DC8A4FF4C1383B002B291468B59B8C9D0748F1420E501CA5F0CEC55F3228AC5A708015062966EFD27D83B4B3116DCCA875136EA00A012314FA968F0182FEC045952AC5AC08D7F2AEF455CD
310
58B232D3592745883E07289E4FD609D26370C96B0CA27AB252A464A64D63A6FCD35C0C7A904D73EE467EE664DCD58CD4ED4849D79C5A723ED1B7A61977AF2D6F45B59AA58866F9C9A83DAA8813484E6947182394BFB3BAA7FBBEDEBFD0434FA9A856F91F53BA4FFF342563E38E6F719FB60092E5200F428A6AED2BAF479979
310
AFDDCA6F504B010214000A0000080000B670623B3DEE336E79000000790000001B00000000000000000000000000000000006175746F6465736B2D64657369676E2D7061636B6167652E786D6C504B01021400140006080800B670623BD486FD9CA0000000F40000001300000000000000000000000000B20000005B436F6E
310
74656E745F54797065735D2E786D6C504B01021400140006080800B670623BCA089DFFEC0000007C010000080000000000000000000000000083010000636F72652E786D6C504B01021400140006080800B670623B55019EA25F0000007C000000070000000000000000000000000095020000636E782E786D6C504B010214
310
00140006080800B670623B68FC0B7272010000D40300000C00000000000000000000000000190300006662782F636F72652E786D6C504B01021400140006080800B670623B0F71DDB67E0000009D0000000B00000000000000000000000000B50400006662782F636E782E786D6C504B01021400140006080800B670623BE1
310
34B4FB280100001202000031000000000000000000000000005C0500006662782F38353834323741342D343835462D343034322D383541392D4331303331363839454531452F636F72652E786D6C504B01021400140006080800B670623B1B8617914E010000330300003000000000000000000000000000D3060000666278
310
2F38353834323741342D343835462D343034322D383541392D4331303331363839454531452F636E782E786D6C504B01021400140006080800B670623B5933D422630500003B10000034000000000000000000000000006F0800006662782F38353834323741342D343835462D343034322D383541392D4331303331363839
310
454531452F6F626A656374732E786D6C504B01021400140006080000B670623B0000000000000000000000003500000000000000000000000000240E00006662782F38353834323741342D343835462D343034322D383541392D4331303331363839454531452F76657274696365732E62696E504B01021400140006080800
310
B670623BF270F13306000000040000003600000000000000000000000000770E00006662782F38353834323741342D343835462D343034322D383541392D4331303331363839454531452F747269616E676C65732E62696E504B01021400140006080000B670623B0000000000000000000000003700000000000000000000
310
000000D10E00006662782F38353834323741342D343835462D343034322D383541392D4331303331363839454531452F617474726962757465732E62696E504B01021400140006080800B670623B08DA0BD190000000410100003600000000000000000000000000260F00006662782F38353834323741342D343835462D34
310
3034322D383541392D4331303331363839454531452F6469726563746F72792E786D6C504B01021400140006080800B670623BD9A3B367FE000000A00100003B000000000000000000000000000A1000006662782F38353834323741342D343835462D343034322D383541392D4331303331363839454531452F7265736F75
310
726365732F636F72652E786D6C504B0506000000000E000E0080040000611100000000
  0
XRECORD
  5
113
102
{ACAD_REACTORS
330
110
102
}
330
110
100
AcDbXrecord
280
     1
270
     1
271
     1
  0
XRECORD
  5
114
102
{ACAD_REACTORS
330
110
102
}
330
110
100
AcDbXrecord
280
     1
270
     1
271
     1
  0
XRECORD
  5
2C6
102
{ACAD_REACTORS
330
2C5
102
}
330
2C5
100
AcDbXrecord
280
     1
102
DISPLAYNAME
  1
Imperial24
102
FLAGS
 90
        0
  0
XRECORD
  5
2CA
102
{ACAD_REACTORS
330
2C9
102
}
330
2C9
100
AcDbXrecord
280
     1
102
DISPLAYNAME
  1
Metric50
102
FLAGS
 90
        0
  0
CELLSTYLEMAP
  5
2BA
102
{ACAD_REACTORS
330
2B9
102
}
330
2B9
100
AcDbCellStyleMap
 90
        3
300
CELLSTYLE
  1
TABLEFORMAT_BEGIN
 90
        5
170
     1
 91
        0
 92
    32768
 62
   257
 93
        1
300
CONTENTFORMAT
  1
CONTENTFORMAT_BEGIN
 90
        0
 91
        0
 92
      512
 93
        0
300

 40
0.0
140
1.0
 94
        5
 62
     0
340
20C
144
0.25
309
CONTENTFORMAT_END
171
     0
 94
        6
 95
        1
302
GRIDFORMAT
  1
GRIDFORMAT_BEGIN
 90
        0
 91
        1
 62
     0
 92
       -2
340
0
 93
        1
 40
0.045
309
GRIDFORMAT_END
 95
        2
302
GRIDFORMAT
  1
GRIDFORMAT_BEGIN
 90
        0
 91
        1
 62
     0
 92
       -2
340
0
 93
        1
 40
0.045
309
GRIDFORMAT_END
 95
        4
302
GRIDFORMAT
  1
GRIDFORMAT_BEGIN
 90
        0
 91
        1
 62
     0
 92
       -2
340
0
 93
        1
 40
0.045
309
GRIDFORMAT_END
 95
        8
302
GRIDFORMAT
  1
GRIDFORMAT_BEGIN
 90
        0
 91
        1
 62
     0
 92
       -2
340
0
 93
        1
 40
0.045
309
GRIDFORMAT_END
 95
       16
302
GRIDFORMAT
  1
GRIDFORMAT_BEGIN
 90
        0
 91
        1
 62
     0
 92
       -2
340
0
 93
        1
 40
0.045
309
GRIDFORMAT_END
 95
       32
302
GRIDFORMAT
  1
GRIDFORMAT_BEGIN
 90
        0
 91
        1
 62
     0
 92
       -2
340
0
 93
        1
 40
0.045
309
GRIDFORMAT_END
309
TABLEFORMAT_END
  1
CELLSTYLE_BEGIN
 90
        1
 91
        1
300
_TITLE
309
CELLSTYLE_END
300
CELLSTYLE
  1
TABLEFORMAT_BEGIN
 90
        5
170
     1
 91
        0
 92
        0
 62
   257
 93
        1
300
CONTENTFORMAT
  1
CONTENTFORMAT_BEGIN
 90
        0
 91
        0
 92
      512
 93
        0
300

 40
0.0
140
1.0
 94
        4
 62
     0
340
20C
144
0.18
309
CONTENTFORMAT_END
171
     0
 94
        6
 95
        1
302
GRIDFORMAT
  1
GRIDFORMAT_BEGIN
 90
        0
 91
        1
 62
     0
 92
       -2
340
0
 93
        1
 40
0.045
309
GRIDFORMAT_END
 95
        2
302
GRIDFORMAT
  1
GRIDFORMAT_BEGIN
 90
        0
 91
        1
 62
     0
 92
       -2
340
0
 93
        1
 40
0.045
309
GRIDFORMAT_END
 95
        4
302
GRIDFORMAT
  1
GRIDFORMAT_BEGIN
 90
        0
 91
        1
 62
     0
 92
       -2
340
0
 93
        1
 40
0.045
309
GRIDFORMAT_END
 95
        8
302
GRIDFORMAT
  1
GRIDFORMAT_BEGIN
 90
        0
 91
        1
 62
     0
 92
       -2
340
0
 93
        1
 40
0.045
309
GRIDFORMAT_END
 95
       16
302
GRIDFORMAT
  1
GRIDFORMAT_BEGIN
 90
        0
 91
        1
 62
     0
 92
       -2
340
0
 93
        1
 40
0.045
309
GRIDFORMAT_END
 95
       32
302
GRIDFORMAT
  1
GRIDFORMAT_BEGIN
 90
        0
 91
        1
 62
     0
 92
       -2
340
0
 93
        1
 40
0.045
309
GRIDFORMAT_END
309
TABLEFORMAT_END
  1
CELLSTYLE_BEGIN
 90
        2
 91
        1
300
_HEADER
309
CELLSTYLE_END
300
CELLSTYLE
  1
TABLEFORMAT_BEGIN
 90
        5
170
     1
 91
        0
 92
        0
 62
   257
 93
        1
300
CONTENTFORMAT
  1
CONTENTFORMAT_BEGIN
 90
        0
 91
        0
 92
      512
 93
        0
300

 40
0.0
140
1.0
 94
        4
 62
     0
340
20C
144
0.18
309
CONTENTFORMAT_END
171
     0
 94
        6
 95
        1
302
GRIDFORMAT
  1
GRIDFORMAT_BEGIN
 90
        0
 91
        1
 62
     0
 92
       -2
340
0
 93
        1
 40
0.045
309
GRIDFORMAT_END
 95
        2
302
GRIDFORMAT
  1
GRIDFORMAT_BEGIN
 90
        0
 91
        1
 62
     0
 92
       -2
340
0
 93
        1
 40
0.045
309
GRIDFORMAT_END
 95
        4
302
GRIDFORMAT
  1
GRIDFORMAT_BEGIN
 90
        0
 91
        1
 62
     0
 92
       -2
340
0
 93
        1
 40
0.045
309
GRIDFORMAT_END
 95
        8
302
GRIDFORMAT
  1
GRIDFORMAT_BEGIN
 90
        0
 91
        1
 62
     0
 92
       -2
340
0
 93
        1
 40
0.045
309
GRIDFORMAT_END
 95
       16
302
GRIDFORMAT
  1
GRIDFORMAT_BEGIN
 90
        0
 91
        1
 62
     0
 92
       -2
340
0
 93
        1
 40
0.045
309
GRIDFORMAT_END
 95
       32
302
GRIDFORMAT
  1
GRIDFORMAT_BEGIN
 90
        0
 91
        1
 62
     0
 92
       -2
340
0
 93
        1
 40
0.045
309
GRIDFORMAT_END
309
TABLEFORMAT_END
  1
CELLSTYLE_BEGIN
 90
        3
 91
        2
300
_DATA
309
CELLSTYLE_END
  0
CELLSTYLEMAP
  5
2B8
102
{ACAD_REACTORS
330
104
102
}
330
104
100
AcDbCellStyleMap
 90
        3
300
CELLSTYLE
  1
TABLEFORMAT_BEGIN
 90
        5
170
     1
 91
        0
 92
    32768
 62
   257
 93
        1
300
CONTENTFORMAT
  1
CONTENTFORMAT_BEGIN
 90
        0
 91
        0
 92
      512
 93
        0
300

 40
0.0
140
1.0
 94
        5
 62
     0
340
11
144
0.25
309
CONTENTFORMAT_END
171
     1
301
MARGIN
  1
CELLMARGIN_BEGIN
 40
0.06
 40
0.06
 40
0.06
 40
0.06
 40
0.18
 40
0.18
309
CELLMARGIN_END
 94
        6
 95
        1
302
GRIDFORMAT
  1
GRIDFORMAT_BEGIN
 90
        0
 91
        1
 62
     0
 92
       -2
340
0
 93
        0
 40
0.045
309
GRIDFORMAT_END
 95
        2
302
GRIDFORMAT
  1
GRIDFORMAT_BEGIN
 90
        0
 91
        1
 62
     0
 92
       -2
340
0
 93
        0
 40
0.045
309
GRIDFORMAT_END
 95
        4
302
GRIDFORMAT
  1
GRIDFORMAT_BEGIN
 90
        0
 91
        1
 62
     0
 92
       -2
340
0
 93
        0
 40
0.045
309
GRIDFORMAT_END
 95
        8
302
GRIDFORMAT
  1
GRIDFORMAT_BEGIN
 90
        0
 91
        1
 62
     0
 92
       -2
340
0
 93
        0
 40
0.045
309
GRIDFORMAT_END
 95
       16
302
GRIDFORMAT
  1
GRIDFORMAT_BEGIN
 90
        0
 91
        1
 62
     0
 92
       -2
340
0
 93
        0
 40
0.045
309
GRIDFORMAT_END
 95
       32
302
GRIDFORMAT
  1
GRIDFORMAT_BEGIN
 90
        0
 91
        1
 62
     0
 92
       -2
340
0
 93
        0
 40
0.045
309
GRIDFORMAT_END
309
TABLEFORMAT_END
  1
CELLSTYLE_BEGIN
 90
        1
 91
        1
300
_TITLE
309
CELLSTYLE_END
300
CELLSTYLE
  1
TABLEFORMAT_BEGIN
 90
        5
170
     1
 91
        0
 92
        0
 62
   257
 93
        1
300
CONTENTFORMAT
  1
CONTENTFORMAT_BEGIN
 90
        0
 91
        0
 92
      512
 93
        0
300

 40
0.0
140
1.0
 94
        5
 62
     0
340
11
144
0.18
309
CONTENTFORMAT_END
171
     1
301
MARGIN
  1
CELLMARGIN_BEGIN
 40
0.06
 40
0.06
 40
0.06
 40
0.06
 40
0.18
 40
0.18
309
CELLMARGIN_END
 94
        6
 95
        1
302
GRIDFORMAT
  1
GRIDFORMAT_BEGIN
 90
        0
 91
        1
 62
     0
 92
       -2
340
0
 93
        0
 40
0.045
309
GRIDFORMAT_END
 95
        2
302
GRIDFORMAT
  1
GRIDFORMAT_BEGIN
 90
        0
 91
        1
 62
     0
 92
       -2
340
0
 93
        0
 40
0.045
309
GRIDFORMAT_END
 95
        4
302
GRIDFORMAT
  1
GRIDFORMAT_BEGIN
 90
        0
 91
        1
 62
     0
 92
       -2
340
0
 93
        0
 40
0.045
309
GRIDFORMAT_END
 95
        8
302
GRIDFORMAT
  1
GRIDFORMAT_BEGIN
 90
        0
 91
        1
 62
     0
 92
       -2
340
0
 93
        0
 40
0.045
309
GRIDFORMAT_END
 95
       16
302
GRIDFORMAT
  1
GRIDFORMAT_BEGIN
 90
        0
 91
        1
 62
     0
 92
       -2
340
0
 93
        0
 40
0.045
309
GRIDFORMAT_END
 95
       32
302
GRIDFORMAT
  1
GRIDFORMAT_BEGIN
 90
        0
 91
        1
 62
     0
 92
       -2
340
0
 93
        0
 40
0.045
309
GRIDFORMAT_END
309
TABLEFORMAT_END
  1
CELLSTYLE_BEGIN
 90
        2
 91
        1
300
_HEADER
309
CELLSTYLE_END
300
CELLSTYLE
  1
TABLEFORMAT_BEGIN
 90
        5
170
     1
 91
        0
 92
        0
 62
   257
 93
        1
300
CONTENTFORMAT
  1
CONTENTFORMAT_BEGIN
 90
        0
 91
        0
 92
      512
 93
        0
300

 40
0.0
140
1.0
 94
        2
 62
     0
340
11
144
0.18
309
CONTENTFORMAT_END
171
     1
301
MARGIN
  1
CELLMARGIN_BEGIN
 40
0.06
 40
0.06
 40
0.06
 40
0.06
 40
0.18
 40
0.18
309
CELLMARGIN_END
 94
        6
 95
        1
302
GRIDFORMAT
  1
GRIDFORMAT_BEGIN
 90
        0
 91
        1
 62
     0
 92
       -2
340
0
 93
        0
 40
0.045
309
GRIDFORMAT_END
 95
        2
302
GRIDFORMAT
  1
GRIDFORMAT_BEGIN
 90
        0
 91
        1
 62
     0
 92
       -2
340
0
 93
        0
 40
0.045
309
GRIDFORMAT_END
 95
        4
302
GRIDFORMAT
  1
GRIDFORMAT_BEGIN
 90
        0
 91
        1
 62
     0
 92
       -2
340
0
 93
        0
 40
0.045
309
GRIDFORMAT_END
 95
        8
302
GRIDFORMAT
  1
GRIDFORMAT_BEGIN
 90
        0
 91
        1
 62
     0
 92
       -2
340
0
 93
        0
 40
0.045
309
GRIDFORMAT_END
 95
       16
302
GRIDFORMAT
  1
GRIDFORMAT_BEGIN
 90
        0
 91
        1
 62
     0
 92
       -2
340
0
 93
        0
 40
0.045
309
GRIDFORMAT_END
 95
       32
302
GRIDFORMAT
  1
GRIDFORMAT_BEGIN
 90
        0
 91
        1
 62
     0
 92
       -2
340
0
 93
        0
 40
0.045
309
GRIDFORMAT_END
309
TABLEFORMAT_END
  1
CELLSTYLE_BEGIN
 90
        3
 91
        2
300
_DATA
309
CELLSTYLE_END
  0
DMBASEELEMENT
  5
20E
102
{ACAD_XDICTIONARY
360
212
102
}
102
{ACAD_REACTORS
330
20B
102
}
330
20B
100
AcMapDMBaseElement
 70
     1
  1
Kartenbasis
 70
     1
330
20B
100
AcMapDMBaseElement
 70
     2
  1

 70
     2
  1

 70
     1
 40
1.797693134862314E+99
 70
        1
 70
     1
 70
     1
 70
     1
360
211
100
AcMapDMBaseElement
 70
     1
  0
DMDEFAULTSTYLE
  5
20F
102
{ACAD_REACTORS
330
20B
102
}
330
20B
100
AcMapDMDefaultStyle
 70
     1
 90
        1
  1
Vorgabe
100
AcMapDMDefaultStyle
 70
     1
280
   100
 90
        0
1001
AcMapDMDisplayStyleRegapp
1070
     2
1071
        1
1000
Vorgabe
1000

  0
DICTIONARY
  5
212
330
20E
100
AcDbDictionary
280
     1
281
     1
  3
AcMapDMSurrogateStyleSets
360
213
  0
DMSTYLEREFERENCE
  5
211
330
20E
100
AcMapDMStyleReference
 70
     1
 70
     0
340
20F
330
20B
  0
DMSURROGATESTYLESETS
  5
213
102
{ACAD_REACTORS
330
212
102
}
330
212
100
AcMapDMSurrogateStyleSets
 70
     1
  1
Kartenbasis
 70
     1
 40
1.797693134862314E+99
 70
        1
 70
     1
 70
     1
 70
     1
330
211
 70
     0
  0
ENDSEC
  0
SECTION
  2
ACDSDATA
 70
     2
 71
     8
  0
ACDSSCHEMA
 90
        0
  1
AcDb_Thumbnail_Schema
  2
AcDbDs::ID
280
    10
 91
        8
  2
Thumbnail_Data
280
    15
 91
        0
101
ACDSRECORD
 95
        0
 90
        1
  2
AcDbDs::TreatedAsObjectData
280
     1
291
     1
101
ACDSRECORD
 95
        0
 90
        2
  2
AcDbDs::Legacy
280
     1
291
     1
101
ACDSRECORD
  1
AcDbDs::ID
 90
        3
  2
AcDs:Indexable
280
     1
291
     1
101
ACDSRECORD
  1
AcDbDs::ID
 90
        4
  2
AcDbDs::HandleAttribute
280
     7
282
     1
  0
ACDSSCHEMA
 90
        1
  1
AcDbDs::TreatedAsObjectDataSchema
  2
AcDbDs::TreatedAsObjectData
280
     1
 91
        0
  0
ACDSSCHEMA
 90
        2
  1
AcDbDs::LegacySchema
  2
AcDbDs::Legacy
280
     1
 91
        0
  0
ACDSSCHEMA
 90
        3
  1
AcDbDs::IndexedPropertySchema
  2
AcDs:Indexable
280
     1
 91
        0
  0
ACDSSCHEMA
 90
        4
  1
AcDbDs::HandleAttributeSchema
  2
AcDbDs::HandleAttribute
280
     7
 91
        1
284
     1
  0
ACDSRECORD
 90
        0
  2
AcDbDs::ID
280
    10
320
22
  2
Thumbnail_Data
280
    15
 94
      896
310
89504E470D0A1A0A0000000D4948445200000100000000690803000000E2200D7200000300504C5445D7D7D7FFFFFFD7D7D70000000000000000000000000000000000000000000000000000330000660000990000CC0000FF0033000033330033660033990033CC0033FF0066000066330066660066990066CC0066FF0099
310
000099330099660099990099CC0099FF00CC0000CC3300CC6600CC9900CCCC00CCFF00FF0000FF3300FF6600FF9900FFCC00FFFF3300003300333300663300993300CC3300FF3333003333333333663333993333CC3333FF3366003366333366663366993366CC3366FF3399003399333399663399993399CC3399FF33CC00
310
33CC3333CC6633CC9933CCCC33CCFF33FF0033FF3333FF6633FF9933FFCC33FFFF6600006600336600666600996600CC6600FF6633006633336633666633996633CC6633FF6666006666336666666666996666CC6666FF6699006699336699666699996699CC6699FF66CC0066CC3366CC6666CC9966CCCC66CCFF66FF0066
310
FF3366FF6666FF9966FFCC66FFFF9900009900339900669900999900CC9900FF9933009933339933669933999933CC9933FF9966009966339966669966999966CC9966FF9999009999339999669999999999CC9999FF99CC0099CC3399CC6699CC9999CCCC99CCFF99FF0099FF3399FF6699FF9999FFCC99FFFFCC0000CC00
310
33CC0066CC0099CC00CCCC00FFCC3300CC3333CC3366CC3399CC33CCCC33FFCC6600CC6633CC6666CC6699CC66CCCC66FFCC9900CC9933CC9966CC9999CC99CCCC99FFCCCC00CCCC33CCCC66CCCC99CCCCCCCCCCFFCCFF00CCFF33CCFF66CCFF99CCFFCCCCFFFFFF0000FF0033FF0066FF0099FF00CCFF00FFFF3300FF3333
310
FF3366FF3399FF33CCFF33FFFF6600FF6633FF6666FF6699FF66CCFF66FFFF9900FF9933FF9966FF9999FF99CCFF99FFFFCC00FFCC33FFCC66FFCC99FFCCCCFFCCFFFFFF00FFFF33FFFF66FFFF99FFFFCCFFFFFF0000000D0D0D1A1A1A2828283535354343435050505D5D5D6B6B6B787878868686939393A1A1A1AEAEAEBB
310
BBBBC9C9C9D6D6D6E4E4E4F1F1F1FFFFFF0000000000000000000000000000000000000000000000000000000000004CC95296000000314944415478DAEDC13101000000C2A0F54F6D0D0FA000000000000000000000000000000000000000000000000000004E0D696900013EF8F3470000000049454E44AE426082000049
310
454E44AE426082
  0
ENDSEC
  0
EOF
